0
SECTION
2
HEADER
9
$INSUNITS
70
4
9
$ACADVER
1
AC1014
9
$HANDSEED
5
FFFF
0
ENDSEC
0
SECTION
2
TABLES
0
TABLE
2
VPORT
5
8
100
AcDbSymbolTable
0
ENDTAB
0
TABLE
2
LTYPE
5
5
100
AcDbSymbolTable
0
LTYPE
5
14
100
AcDbSymbolTableRecord
100
AcDbLinetypeTableRecord
2
BYBLOCK
70
0
0
LTYPE
5
15
100
AcDbSymbolTableRecord
100
AcDbLinetypeTableRecord
2
BYLAYER
70
0
0
ENDTAB
0
TABLE
2
LAYER
5
2
100
AcDbSymbolTable
70
2
0
LAYER
5
50
100
AcDbSymbolTableRecord
100
AcDbLayerTableRecord
2
0
70
0
6
CONTINUOUS
0
ENDTAB
0
TABLE
2
STYLE
5
3
100
AcDbSymbolTable
70
1
0
STYLE
5
11
100
AcDbSymbolTableRecord
100
AcDbTextStyleTableRecord
2
STANDARD
70
0
0
ENDTAB
0
TABLE
2
VIEW
5
6
100
AcDbSymbolTable
70
0
0
ENDTAB
0
TABLE
2
UCS
5
7
100
AcDbSymbolTable
70
0
0
ENDTAB
0
TABLE
2
APPID
5
9
100
AcDbSymbolTable
70
2
0
APPID
5
12
100
AcDbSymbolTableRecord
100
AcDbRegAppTableRecord
2
ACAD
70
0
0
ENDTAB
0
TABLE
2
DIMSTYLE
5
A
100
AcDbSymbolTable
70
1
0
ENDTAB
0
TABLE
2
BLOCK_RECORD
5
1
100
AcDbSymbolTable
70
1
0
BLOCK_RECORD
5
1F
100
AcDbSymbolTableRecord
100
AcDbBlockTableRecord
2
*MODEL_SPACE
0
BLOCK_RECORD
5
1B
100
AcDbSymbolTableRecord
100
AcDbBlockTableRecord
2
*PAPER_SPACE
0
ENDTAB
0
ENDSEC
0
SECTION
2
BLOCKS
0
BLOCK
5
20
100
AcDbEntity
100
AcDbBlockBegin
2
*MODEL_SPACE
0
ENDBLK
5
21
100
AcDbEntity
100
AcDbBlockEnd
0
BLOCK
5
1C
100
AcDbEntity
100
AcDbBlockBegin
2
*PAPER_SPACE
0
ENDBLK
5
1D
100
AcDbEntity
100
AcDbBlockEnd
0
ENDSEC
0
SECTION
2
ENTITIES
0
LWPOLYLINE
5
100
100
AcDbEntity
8
0
100
AcDbPolyline
90
4
70
1
43
0.0
10
50.000052753320936
20
140.0143201571417
10
-40.974508287697013
20
140.23085209212979
10
-40.974508287697127
20
-1559.7691479078703
10
50.000052753320944
20
-1559.9735079841205
0
LWPOLYLINE
5
101
100
AcDbEntity
8
0
100
AcDbPolyline
90
4
70
1
43
0.0
10
1480.4537444033008
20
329.1986444172565
10
1476.4537444033008
20
329.1986444172565
10
1476.4537444033008
20
-352.63871207470089
10
1480.4537444033008
20
-352.63871207470089
0
LWPOLYLINE
5
102
100
AcDbEntity
8
0
100
AcDbPolyline
90
4
70
1
43
0.0
10
1589.6658018167989
20
-1736.8672050974681
10
1589.6658018167989
20
-761.19955593777627
10
1585.6658018167989
20
-761.19955593777627
10
1585.6658018167989
20
-1736.867205097469
0
LINE
5
103
100
AcDbEntity
8
0
100
AcDbLine
10
1804.2659506196578
20
-761.19955593777627
30
0
11
136.7395072372706
21
-761.19955593777615
31
0
0
LINE
5
104
100
AcDbEntity
8
0
100
AcDbLine
10
1756.9417139809095
20
-352.63871207470089
30
0
11
103.21390255590472
21
-352.63871207470072
31
0
0
LWPOLYLINE
5
105
100
AcDbEntity
8
0
100
AcDbPolyline
90
4
70
1
43
0.0
10
629.27673621212398
20
-994.28355611850748
10
629.27673621212398
20
-352.63871207470083
10
625.27673621212398
20
-352.63871207470072
10
625.27673621212398
20
-994.28355611850736
0
LWPOLYLINE
5
106
100
AcDbEntity
8
0
100
AcDbPolyline
90
4
70
1
43
0.0
10
296.86903417172198
20
186.4525896877953
10
296.86903417172198
20
-761.19955593777615
10
300.86903417172198
20
-761.19955593777615
10
300.86903417172198
20
186.4525896877953
0
LINE
5
107
100
AcDbEntity
8
0
100
AcDbLine
10
759.27673621212398
20
-82.743865260912131
30
0
11
759.27673621212398
21
-1088.5365422737252
31
0
0
LINE
5
108
100
AcDbEntity
8
0
100
AcDbLine
10
426.86903417172198
20
-67.142365055866946
30
0
11
426.86903417172198
21
-1072.9350420686794
31
0
0
LINE
5
109
100
AcDbEntity
8
0
100
AcDbLine
10
1647.4682552088257
20
-1585.2851280749514
30
0
11
-29.999999999970655
21
-1585.2853500094834
31
0
0
SPLINE
5
110
100
AcDbEntity
8
0
100
AcDbSpline
70
4
71
3
72
8
73
4
74
0
42
0.000000001
43
0.0000000001
44
0.0000000001
40
0
40
0
40
0
40
0
40
1
40
1
40
1
40
1
41
1
41
1
41
1
41
1
10
664.18878348243288
20
114.1160694657394
30
0
10
658.12022631153627
20
114.21783603557543
30
0
10
651.9804734118627
20
113.89855874900547
30
0
10
645.98188586649167
20
113.08626534519391
30
0
0
SPLINE
5
111
100
AcDbEntity
8
0
100
AcDbSpline
70
4
71
3
72
8
73
4
74
0
42
0.000000001
43
0.0000000001
44
0.0000000001
40
0
40
0
40
0
40
0
40
1
40
1
40
1
40
1
41
1
41
1
41
1
41
1
10
645.98188586649167
20
113.08626534519391
30
0
10
629.98565241216954
20
110.92039482234625
30
0
10
614.99143140470267
20
105.25514388082385
30
0
10
602.82734279138651
20
93.924315036912134
30
0
0
SPLINE
5
112
100
AcDbEntity
8
0
100
AcDbSpline
70
4
71
3
72
8
73
4
74
0
42
0.000000001
43
0.0000000001
44
0.0000000001
40
0
40
0
40
0
40
0
40
1
40
1
40
1
40
1
41
1
41
1
41
1
41
1
10
602.82734279138651
20
93.924315036912134
30
0
10
590.66329504817872
20
82.59352706310878
30
0
10
581.33113711378144
20
65.597283797241062
30
0
10
575.63744057683505
20
42.107924674751303
30
0
0
SPLINE
5
113
100
AcDbEntity
8
0
100
AcDbSpline
70
4
71
3
72
8
73
4
74
0
42
0.000000001
43
0.0000000001
44
0.0000000001
40
0
40
0
40
0
40
0
40
1
40
1
40
1
40
1
41
1
41
1
41
1
41
1
10
575.63744057683505
20
42.107924674751303
30
0
10
569.94370316978018
20
18.618483812044673
30
0
10
567.88948978299368
20
-11.360231117097612
30
0
10
573.229005960824
20
-36.776697589349965
30
0
0
SPLINE
5
114
100
AcDbEntity
8
0
100
AcDbSpline
70
4
71
3
72
8
73
4
74
0
42
0.000000001
43
0.0000000001
44
0.0000000001
40
0
40
0
40
0
40
0
40
1
40
1
40
1
40
1
41
1
41
1
41
1
41
1
10
573.229005960824
20
-36.776697589349965
30
0
10
578.56852213865454
20
-62.193082321385447
30
0
10
591.30107308925949
20
-83.044766390028855
30
0
10
597.19670883165168
20
-100.06757522633563
30
0
0
SPLINE
5
115
100
AcDbEntity
8
0
100
AcDbSpline
70
4
71
3
72
8
73
4
74
0
42
0.000000001
43
0.0000000001
44
0.0000000001
40
0
40
0
40
0
40
0
40
1
40
1
40
1
40
1
41
1
41
1
41
1
41
1
10
597.19670883165168
20
-100.06757522633563
30
0
10
603.09226283382714
20
-117.09046580285914
30
0
10
602.14987987508039
20
-130.28415418617897
30
0
10
592.95018196190358
20
-144.35156374618742
30
0
0
SPLINE
5
116
100
AcDbEntity
8
0
100
AcDbSpline
70
4
71
3
72
8
73
4
74
0
42
0.000000001
43
0.0000000001
44
0.0000000001
40
0
40
0
40
0
40
0
40
1
40
1
40
1
40
1
41
1
41
1
41
1
41
1
10
592.95018196190358
20
-144.35156374618742
30
0
10
583.75044317861818
20
-158.41897330619588
30
0
10
576.31576176541682
20
-175.36363849530332
30
0
10
565.42081262724855
20
-202.6625821589802
30
0
0
SPLINE
5
117
100
AcDbEntity
8
0
100
AcDbSpline
70
4
71
3
72
8
73
4
74
0
42
0.000000001
43
0.0000000001
44
0.0000000001
40
0
40
0
40
0
40
0
40
1
40
1
40
1
40
1
41
1
41
1
41
1
41
1
10
565.42081262724855
20
-202.6625821589802
30
0
10
554.5258226189718
20
-229.96152582265708
30
0
10
550.1953076765277
20
-255.58585766606839
30
0
10
551.02856744593214
20
-289.41036805241168
30
0
0
SPLINE
5
118
100
AcDbEntity
8
0
100
AcDbSpline
70
4
71
3
72
8
73
4
74
0
42
0.000000001
43
0.0000000001
44
0.0000000001
40
0
40
0
40
0
40
0
40
1
40
1
40
1
40
1
41
1
41
1
41
1
41
1
10
551.02856744593214
20
-289.41036805241168
30
0
10
551.86190895555319
20
-323.234878438755
30
0
10
547.83706155359255
20
-363.25259982651698
30
0
10
556.16814705362674
20
-400.07599528446207
30
0
0
SPLINE
5
119
100
AcDbEntity
8
0
100
AcDbSpline
70
4
71
3
72
8
73
4
74
0
42
0.000000001
43
0.0000000001
44
0.0000000001
40
0
40
0
40
0
40
0
40
1
40
1
40
1
40
1
41
1
41
1
41
1
41
1
10
556.16814705362674
20
-400.07599528446207
30
0
10
564.49923255366105
20
-436.89930900219025
30
0
10
575.1641238518265
20
-482.55310007410003
30
0
10
577.82983580001326
20
-517.0436297464064
30
0
0
SPLINE
5
120
100
AcDbEntity
8
0
100
AcDbSpline
70
4
71
3
72
8
73
4
74
0
42
0.000000001
43
0.0000000001
44
0.0000000001
40
0
40
0
40
0
40
0
40
1
40
1
40
1
40
1
41
1
41
1
41
1
41
1
10
577.82983580001326
20
-517.0436297464064
30
0
10
580.49554774820012
20
-551.53415941871253
30
0
10
589.19450509365379
20
-564.83934145766
30
0
10
582.36298473974546
20
-586.00016702599817
30
0
0
SPLINE
5
121
100
AcDbEntity
8
0
100
AcDbSpline
70
4
71
3
72
8
73
4
74
0
42
0.000000001
43
0.0000000001
44
0.0000000001
40
0
40
0
40
0
40
0
40
1
40
1
40
1
40
1
41
1
41
1
41
1
41
1
10
582.36298473974546
20
-586.00016702599817
30
0
10
575.53150525594549
20
-607.16091085411961
30
0
10
571.20744779062352
20
-640.18526625883646
30
0
10
565.87565606327462
20
-662.84610654449261
30
0
0
SPLINE
5
122
100
AcDbEntity
8
0
100
AcDbSpline
70
4
71
3
72
8
73
4
74
0
42
0.000000001
43
0.0000000001
44
0.0000000001
40
0
40
0
40
0
40
0
40
1
40
1
40
1
40
1
41
1
41
1
41
1
41
1
10
565.87565606327462
20
-662.84610654449261
30
0
10
560.54378259570899
20
-685.50694683014876
30
0
10
558.21226552364647
20
-721.85436900604145
30
0
10
562.71149227343312
20
-745.84822874622432
30
0
0
SPLINE
5
123
100
AcDbEntity
8
0
100
AcDbSpline
70
4
71
3
72
8
73
4
74
0
42
0.000000001
43
0.0000000001
44
0.0000000001
40
0
40
0
40
0
40
0
40
1
40
1
40
1
40
1
41
1
41
1
41
1
41
1
10
562.71149227343312
20
-745.84822874622432
30
0
10
567.21071902321989
20
-769.84192500597396
30
0
10
567.58758229248019
20
-778.17910015215512
30
0
10
573.75222508814977
20
-798.67366121387988
30
0
0
SPLINE
5
124
100
AcDbEntity
8
0
100
AcDbSpline
70
4
71
3
72
8
73
4
74
0
42
0.000000001
43
0.0000000001
44
0.0000000001
40
0
40
0
40
0
40
0
40
1
40
1
40
1
40
1
41
1
41
1
41
1
41
1
10
573.75222508814977
20
-798.67366121387988
30
0
10
574.96475946320811
20
-802.70476174242106
30
0
10
575.92214175172569
20
-806.7306308970908
30
0
10
576.75021101736729
20
-810.85409787054323
30
0
0
LINE
5
125
100
AcDbEntity
8
0
100
AcDbLine
10
576.75021101736729
20
-810.85409787054334
30
0
11
751.71865976959214
21
-810.14541019144406
31
0
0
SPLINE
5
126
100
AcDbEntity
8
0
100
AcDbSpline
70
4
71
3
72
8
73
4
74
0
42
0.000000001
43
0.0000000001
44
0.0000000001
40
0
40
0
40
0
40
0
40
1
40
1
40
1
40
1
41
1
41
1
41
1
41
1
10
751.71865976959225
20
-810.14541019144417
30
0
10
753.31954191436216
20
-792.98699433557294
30
0
10
754.2186025582389
20
-776.61753505163483
30
0
10
754.61152778008773
20
-758.30952478759173
30
0
0
SPLINE
5
127
100
AcDbEntity
8
0
100
AcDbSpline
70
4
71
3
72
8
73
4
74
0
42
0.000000001
43
0.0000000001
44
0.0000000001
40
0
40
0
40
0
40
0
40
1
40
1
40
1
40
1
41
1
41
1
41
1
41
1
10
754.61152778008773
20
-758.30952478759173
30
0
10
755.44470580927521
20
-719.48684536850669
30
0
10
754.11225853626559
20
-671.83540513979153
30
0
10
751.77955623106027
20
-632.01287938959467
30
0
0
SPLINE
5
128
100
AcDbEntity
8
0
100
AcDbSpline
70
4
71
3
72
8
73
4
74
0
42
0.000000001
43
0.0000000001
44
0.0000000001
40
0
40
0
40
0
40
0
40
1
40
1
40
1
40
1
41
1
41
1
41
1
41
1
10
751.77955623106027
20
-632.01287938959467
30
0
10
749.44693566607179
20
-592.19027189918074
30
0
10
746.11512269170532
20
-560.19935805465423
30
0
10
742.78273753582152
20
-532.70677181753035
30
0
0
SPLINE
5
129
100
AcDbEntity
8
0
100
AcDbSpline
70
4
71
3
72
8
73
4
74
0
42
0.000000001
43
0.0000000001
44
0.0000000001
40
0
40
0
40
0
40
0
40
1
40
1
40
1
40
1
41
1
41
1
41
1
41
1
10
742.78273753582152
20
-532.70677181753035
30
0
10
739.45027063972123
20
-505.21418558040637
30
0
10
736.11698634145341
20
-482.22278785827086
30
0
10
736.11674112080323
20
-465.39353985519438
30
0
0
SPLINE
5
130
100
AcDbEntity
8
0
100
AcDbSpline
70
4
71
3
72
8
73
4
74
0
42
0.000000001
43
0.0000000001
44
0.0000000001
40
0
40
0
40
0
40
0
40
1
40
1
40
1
40
1
41
1
41
1
41
1
41
1
10
736.11674112080323
20
-465.39353985519438
30
0
10
736.11649590015304
20
-448.56429185211778
30
0
10
734.277095802948
20
-355.75031925407501
30
0
10
731.53798114013262
20
-325.63477120211701
30
0
0
SPLINE
5
131
100
AcDbEntity
8
0
100
AcDbSpline
70
4
71
3
72
8
73
4
74
0
42
0.000000001
43
0.0000000001
44
0.0000000001
40
0
40
0
40
0
40
0
40
1
40
1
40
1
40
1
41
1
41
1
41
1
41
1
10
731.53798114013262
20
-325.63477120211701
30
0
10
730.13401117747901
20
-310.19894867373523
30
0
10
718.45774817764197
20
-246.95237423422014
30
0
10
712.2929827716473
20
-231.12329952312251
30
0
0
SPLINE
5
132
100
AcDbEntity
8
0
100
AcDbSpline
70
4
71
3
72
8
73
4
74
0
42
0.000000001
43
0.0000000001
44
0.0000000001
40
0
40
0
40
0
40
0
40
1
40
1
40
1
40
1
41
1
41
1
41
1
41
1
10
712.2929827716473
20
-231.12329952312251
30
0
10
706.12821736565263
20
-215.29422481202488
30
0
10
698.46261984017258
20
-200.30053511596677
30
0
10
693.29712858377263
20
-188.30368698609206
30
0
0
SPLINE
5
133
100
AcDbEntity
8
0
100
AcDbSpline
70
4
71
3
72
8
73
4
74
0
42
0.000000001
43
0.0000000001
44
0.0000000001
40
0
40
0
40
0
40
0
40
1
40
1
40
1
40
1
41
1
41
1
41
1
41
1
10
693.29712858377263
20
-188.30368698609206
30
0
10
688.1316373273728
20
-176.30683885621721
30
0
10
685.46584363896932
20
-167.30977494032828
30
0
10
684.63242038913131
20
-153.97990735592671
30
0
0
SPLINE
5
134
100
AcDbEntity
8
0
100
AcDbSpline
70
4
71
3
72
8
73
4
74
0
42
0.000000001
43
0.0000000001
44
0.0000000001
40
0
40
0
40
0
40
0
40
1
40
1
40
1
40
1
41
1
41
1
41
1
41
1
10
684.63242038913131
20
-153.97990735592671
30
0
10
683.79899713929353
20
-140.650039771525
30
0
10
684.79900695083882
20
-122.98687807731028
30
0
10
686.46495430813047
20
-112.48906378215267
30
0
0
SPLINE
5
135
100
AcDbEntity
8
0
100
AcDbSpline
70
4
71
3
72
8
73
4
74
0
42
0.000000001
43
0.0000000001
44
0.0000000001
40
0
40
0
40
0
40
0
40
1
40
1
40
1
40
1
41
1
41
1
41
1
41
1
10
686.46495430813047
20
-112.48906378215267
30
0
10
688.13114688607232
20
-101.99133122721193
30
0
10
690.46360397062745
20
-98.66148001804703
30
0
10
695.96292227217623
20
-96.99504221945503
30
0
0
SPLINE
5
136
100
AcDbEntity
8
0
100
AcDbSpline
70
4
71
3
72
8
73
4
74
0
42
0.000000001
43
0.0000000001
44
0.0000000001
40
0
40
0
40
0
40
0
40
1
40
1
40
1
40
1
41
1
41
1
41
1
41
1
10
695.96292227217623
20
-96.99504221945503
30
0
10
701.4622405737249
20
-95.328686161079617
30
0
10
710.12645832706585
20
-95.327623538262145
30
0
10
715.95813234986224
20
-97.161138339862134
30
0
0
SPLINE
5
137
100
AcDbEntity
8
0
100
AcDbSpline
70
4
71
3
72
8
73
4
74
0
42
0.000000001
43
0.0000000001
44
0.0000000001
40
0
40
0
40
0
40
0
40
1
40
1
40
1
40
1
41
1
41
1
41
1
41
1
10
715.95813234986224
20
-97.161138339862134
30
0
10
721.78980637265886
20
-98.99473488167871
30
0
10
724.78795578230984
20
-102.65988445989379
30
0
10
730.28670190234152
20
-105.9919426549105
30
0
0
SPLINE
5
138
100
AcDbEntity
8
0
100
AcDbSpline
70
4
71
3
72
8
73
4
74
0
42
0.000000001
43
0.0000000001
44
0.0000000001
40
0
40
0
40
0
40
0
40
1
40
1
40
1
40
1
41
1
41
1
41
1
41
1
10
730.28670190234152
20
-105.9919426549105
30
0
10
735.7854480223732
20
-109.32391910971049
30
0
10
743.78397345061796
20
-112.32427550521351
30
0
10
749.61474833103023
20
-110.15815976171567
30
0
0
SPLINE
5
139
100
AcDbEntity
8
0
100
AcDbSpline
70
4
71
3
72
8
73
4
74
0
42
0.000000001
43
0.0000000001
44
0.0000000001
40
0
40
0
40
0
40
0
40
1
40
1
40
1
40
1
41
1
41
1
41
1
41
1
10
749.61474833103023
20
-110.15815976171567
30
0
10
755.44552321144261
20
-107.99212575843455
30
0
10
759.11181715269197
20
-100.6597013563696
30
0
10
761.11134633448216
20
-93.662003141837431
30
0
0
SPLINE
5
140
100
AcDbEntity
8
0
100
AcDbSpline
70
4
71
3
72
8
73
4
74
0
42
0.000000001
43
0.0000000001
44
0.0000000001
40
0
40
0
40
0
40
0
40
1
40
1
40
1
40
1
41
1
41
1
41
1
41
1
10
761.11134633448216
20
-93.662003141837431
30
0
10
763.1109572564892
20
-86.664223187088538
30
0
10
763.44470256142131
20
-80.000760718789081
30
0
10
765.9447270902848
20
-76.667558160738025
30
0
0
SPLINE
5
141
100
AcDbEntity
8
0
100
AcDbSpline
70
4
71
3
72
8
73
4
74
0
42
0.000000001
43
0.0000000001
44
0.0000000001
40
0
40
0
40
0
40
0
40
1
40
1
40
1
40
1
41
1
41
1
41
1
41
1
10
765.9447270902848
20
-76.667558160738025
30
0
10
768.44483335936491
20
-73.334437342903698
30
0
10
773.10868490565736
20
-73.333129499435898
30
0
10
776.10707953595875
20
-71.000917635531096
30
0
0
SPLINE
5
142
100
AcDbEntity
8
0
100
AcDbSpline
70
4
71
3
72
8
73
4
74
0
42
0.000000001
43
0.0000000001
44
0.0000000001
40
0
40
0
40
0
40
0
40
1
40
1
40
1
40
1
41
1
41
1
41
1
41
1
10
776.10707953595875
20
-71.000917635531096
30
0
10
779.1053924260433
20
-68.668705771626293
30
0
10
780.4383301403534
20
-64.003137680782203
30
0
10
777.93961345495791
20
-55.839088313647522
30
0
0
SPLINE
5
143
100
AcDbEntity
8
0
100
AcDbSpline
70
4
71
3
72
8
73
4
74
0
42
0.000000001
43
0.0000000001
44
0.0000000001
40
0
40
0
40
0
40
0
40
1
40
1
40
1
40
1
41
1
41
1
41
1
41
1
10
777.93961345495791
20
-55.839088313647522
30
0
10
775.44089676956219
20
-47.6750389465127
30
0
10
769.10987176272693
20
-36.012753523737473
30
0
10
765.13917725435374
20
-22.188030667217475
30
0
0
SPLINE
5
144
100
AcDbEntity
8
0
100
AcDbSpline
70
4
71
3
72
8
73
4
74
0
42
0.000000001
43
0.0000000001
44
0.0000000001
40
0
40
0
40
0
40
0
40
1
40
1
40
1
40
1
41
1
41
1
41
1
41
1
10
765.13917725435374
20
-22.188030667217475
30
0
10
761.16840100576383
20
-8.3633078106974779
30
0
10
759.55787351541903
20
7.6217272339319209
30
0
10
758.5866362601646
20
21.946454996224531
30
0
0
SPLINE
5
145
100
AcDbEntity
8
0
100
AcDbSpline
70
4
71
3
72
8
73
4
74
0
42
0.000000001
43
0.0000000001
44
0.0000000001
40
0
40
0
40
0
40
0
40
1
40
1
40
1
40
1
41
1
41
1
41
1
41
1
10
758.5866362601646
20
21.946454996224531
30
0
10
757.61539900491027
20
36.271182758517142
30
0
10
757.28369720539661
20
48.935112797172593
30
0
10
752.45219647457884
20
60.932042667264028
30
0
0
SPLINE
5
146
100
AcDbEntity
8
0
100
AcDbSpline
70
4
71
3
72
8
73
4
74
0
42
0.000000001
43
0.0000000001
44
0.0000000001
40
0
40
0
40
0
40
0
40
1
40
1
40
1
40
1
41
1
41
1
41
1
41
1
10
752.45219647457884
20
60.932042667264028
30
0
10
747.6206957437613
20
72.928890797138877
30
0
10
738.29119436640804
20
84.257839616065695
30
0
10
728.12737059683286
20
92.756042989216212
30
0
0
SPLINE
5
147
100
AcDbEntity
8
0
100
AcDbSpline
70
4
71
3
72
8
73
4
74
0
42
0.000000001
43
0.0000000001
44
0.0000000001
40
0
40
0
40
0
40
0
40
1
40
1
40
1
40
1
41
1
41
1
41
1
41
1
10
728.12737059683286
20
92.756042989216212
30
0
10
717.96354682725769
20
101.25416462215
30
0
10
706.96679024914488
20
106.9181077202046
30
0
10
692.97033119726302
20
110.41756987909622
30
0
0
SPLINE
5
148
100
AcDbEntity
8
0
100
AcDbSpline
70
4
71
3
72
8
73
4
74
0
42
0.000000001
43
0.0000000001
44
0.0000000001
40
0
40
0
40
0
40
0
40
1
40
1
40
1
40
1
41
1
41
1
41
1
41
1
10
692.97033119726302
20
110.41756987909622
30
0
10
684.22257494241819
20
112.60473372840352
30
0
10
674.30299094044938
20
113.94670373666287
30
0
10
664.18878348243288
20
114.1160694657394
30
0
0
SPLINE
5
149
100
AcDbEntity
8
0
100
AcDbSpline
70
4
71
3
72
8
73
4
74
0
42
0.000000001
43
0.0000000001
44
0.0000000001
40
0
40
0
40
0
40
0
40
1
40
1
40
1
40
1
41
1
41
1
41
1
41
1
10
253.36995383336298
20
-171.70805252244634
30
0
10
237.14948652948033
20
-180.36311537151292
30
0
10
231.12149294113877
20
-196.32640751849067
30
0
10
222.66150311931216
20
-217.52417966479328
30
0
0
SPLINE
5
150
100
AcDbEntity
8
0
100
AcDbSpline
70
4
71
3
72
8
73
4
74
0
42
0.000000001
43
0.0000000001
44
0.0000000001
40
0
40
0
40
0
40
0
40
1
40
1
40
1
40
1
41
1
41
1
41
1
41
1
10
222.66150311931216
20
-217.52417966479328
30
0
10
211.76657441619807
20
-244.8231233284703
30
0
10
207.43597773353724
20
-284.47849033544259
30
0
10
208.26927837304999
20
-318.30300072178591
30
0
0
SPLINE
5
151
100
AcDbEntity
8
0
100
AcDbSpline
70
4
71
3
72
8
73
4
74
0
42
0.000000001
43
0.0000000001
44
0.0000000001
40
0
40
0
40
0
40
0
40
1
40
1
40
1
40
1
41
1
41
1
41
1
41
1
10
208.26927837304999
20
-318.30300072178591
30
0
10
209.10257901256276
20
-352.12751110812917
30
0
10
215.10000175984513
20
-380.11863092712463
30
0
10
223.43108725987943
20
-416.94194464485281
30
0
0
SPLINE
5
152
100
AcDbEntity
8
0
100
AcDbSpline
70
4
71
3
72
8
73
4
74
0
42
0.000000001
43
0.0000000001
44
0.0000000001
40
0
40
0
40
0
40
0
40
1
40
1
40
1
40
1
41
1
41
1
41
1
41
1
10
223.43108725987943
20
-416.94194464485281
30
0
10
231.76217275991371
20
-453.76525836258111
30
0
10
242.42706405807917
20
-499.41904943449089
30
0
10
245.0927964413201
20
-533.90957910679708
30
0
0
SPLINE
5
153
100
AcDbEntity
8
0
100
AcDbSpline
70
4
71
3
72
8
73
4
74
0
42
0.000000001
43
0.0000000001
44
0.0000000001
40
0
40
0
40
0
40
0
40
1
40
1
40
1
40
1
41
1
41
1
41
1
41
1
10
245.0927964413201
20
-533.90957910679708
30
0
10
247.75850838950689
20
-568.40010877910345
30
0
10
242.42636926623692
20
-591.72745879202296
30
0
10
235.59486934738283
20
-612.88828436036113
30
0
0
SPLINE
5
154
100
AcDbEntity
8
0
100
AcDbSpline
70
4
71
3
72
8
73
4
74
0
42
0.000000001
43
0.0000000001
44
0.0000000001
40
0
40
0
40
0
40
0
40
1
40
1
40
1
40
1
41
1
41
1
41
1
41
1
10
235.59486934738283
20
-612.88828436036113
30
0
10
228.76334899347449
20
-634.04919166891602
30
0
10
220.43044477361786
20
-653.04218494920497
30
0
10
215.09861217616063
20
-675.70302523486112
30
0
0
SPLINE
5
155
100
AcDbEntity
8
0
100
AcDbSpline
70
4
71
3
72
8
73
4
74
0
42
0.000000001
43
0.0000000001
44
0.0000000001
40
0
40
0
40
0
40
0
40
1
40
1
40
1
40
1
41
1
41
1
41
1
41
1
10
215.09861217616063
20
-675.70302523486112
30
0
10
209.76677957870339
20
-698.36386552051727
30
0
10
207.43526250664078
20
-724.68911972243768
30
0
10
211.93446882137334
20
-748.68297946262089
30
0
0
SPLINE
5
156
100
AcDbEntity
8
0
100
AcDbSpline
70
4
71
3
72
8
73
4
74
0
42
0.000000001
43
0.0000000001
44
0.0000000001
40
0
40
0
40
0
40
0
40
1
40
1
40
1
40
1
41
1
41
1
41
1
41
1
10
211.93446882137334
20
-748.68297946262089
30
0
10
216.43369557116006
20
-772.67683920280376
30
0
10
227.76370701290446
20
-794.33636183344674
30
0
10
233.92837024362819
20
-814.83075941473828
30
0
0
SPLINE
5
157
100
AcDbEntity
8
0
100
AcDbSpline
70
4
71
3
72
8
73
4
74
0
42
0.000000001
43
0.0000000001
44
0.0000000001
40
0
40
0
40
0
40
0
40
1
40
1
40
1
40
1
41
1
41
1
41
1
41
1
10
233.92837024362819
20
-814.83075941473828
30
0
10
240.09303347435196
20
-835.32515699602982
30
0
10
241.09400373344397
20
-854.65246776276786
30
0
10
238.92786755489198
20
-896.80753233773657
30
0
0
SPLINE
5
158
100
AcDbEntity
8
0
100
AcDbSpline
70
4
71
3
72
8
73
4
74
0
42
0.000000001
43
0.0000000001
44
0.0000000001
40
0
40
0
40
0
40
0
40
1
40
1
40
1
40
1
41
1
41
1
41
1
41
1
10
238.92786755489198
20
-896.80753233773657
30
0
10
236.76171094128586
20
-938.96259691270529
30
0
10
231.42820266938554
20
-1003.9445978937374
30
0
10
225.42977860444813
20
-1054.9310389652717
30
0
0
SPLINE
5
159
100
AcDbEntity
8
0
100
AcDbSpline
70
4
71
3
72
8
73
4
74
0
42
0.000000001
43
0.0000000001
44
0.0000000001
40
0
40
0
40
0
40
0
40
1
40
1
40
1
40
1
41
1
41
1
41
1
41
1
10
225.42977860444813
20
-1054.9310389652717
30
0
10
219.43135453951075
20
-1105.9173165563725
30
0
10
212.76603248128049
20
-1142.9059089923405
30
0
10
209.76692262408267
20
-1188.7268588074749
30
0
0
SPLINE
5
160
100
AcDbEntity
8
0
100
AcDbSpline
70
4
71
3
72
8
73
4
74
0
42
0.000000001
43
0.0000000001
44
0.0000000001
40
0
40
0
40
0
40
0
40
1
40
1
40
1
40
1
41
1
41
1
41
1
41
1
10
209.76692262408267
20
-1188.7268588074749
30
0
10
206.7678127668849
20
-1234.5479721030426
30
0
10
207.4352420715866
20
-1289.1971922865068
30
0
10
209.43473038326854
20
-1344.0157781990474
30
0
0
SPLINE
5
161
100
AcDbEntity
8
0
100
AcDbSpline
70
4
71
3
72
8
73
4
74
0
42
0.000000001
43
0.0000000001
44
0.0000000001
40
0
40
0
40
0
40
0
40
1
40
1
40
1
40
1
41
1
41
1
41
1
41
1
10
209.43473038326854
20
-1344.0157781990474
30
0
10
211.43421869495046
20
-1398.8343641115875
30
0
10
214.7663586301839
20
-1453.8200270271361
30
0
10
215.59965926969667
20
-1481.8118007678652
30
0
0
SPLINE
5
162
100
AcDbEntity
8
0
100
AcDbSpline
70
4
71
3
72
8
73
4
74
0
42
0.000000001
43
0.0000000001
44
0.0000000001
40
0
40
0
40
0
40
0
40
1
40
1
40
1
40
1
41
1
41
1
41
1
41
1
10
215.59965926969667
20
-1481.8118007678652
30
0
10
216.43295990920944
20
-1509.8037379890279
30
0
10
214.76772777881425
20
-1510.8014590745049
30
0
10
211.76837270096627
20
-1513.300911421851
30
0
0
SPLINE
5
163
100
AcDbEntity
8
0
100
AcDbSpline
70
4
71
3
72
8
73
4
74
0
42
0.000000001
43
0.0000000001
44
0.0000000001
40
0
40
0
40
0
40
0
40
1
40
1
40
1
40
1
41
1
41
1
41
1
41
1
10
211.76837270096627
20
-1513.300911421851
30
0
10
208.76903805817247
20
-1515.800363769197
30
0
10
204.4370722268813
20
-1519.8002395349451
30
0
10
201.27108971721748
20
-1526.7990003722948
30
0
0
SPLINE
5
164
100
AcDbEntity
8
0
100
AcDbSpline
70
4
71
3
72
8
73
4
74
0
42
0.000000001
43
0.0000000001
44
0.0000000001
40
0
40
0
40
0
40
0
40
1
40
1
40
1
40
1
41
1
41
1
41
1
41
1
10
201.27108971721748
20
-1526.7990003722948
30
0
10
198.10510720755363
20
-1533.7975977292108
30
0
10
196.10521019478801
20
-1543.7940992751282
30
0
10
197.7719953893012
20
-1553.1252354568162
30
0
0
SPLINE
5
165
100
AcDbEntity
8
0
100
AcDbSpline
70
4
71
3
72
8
73
4
74
0
42
0.000000001
43
0.0000000001
44
0.0000000001
40
0
40
0
40
0
40
0
40
1
40
1
40
1
40
1
41
1
41
1
41
1
41
1
10
197.7719953893012
20
-1553.1252354568162
30
0
10
199.43878058381438
20
-1562.4563716385042
30
0
10
204.77024535029628
20
-1571.1209980929289
30
0
10
215.26744659382837
20
-1574.2859792849376
30
0
0
SPLINE
5
166
100
AcDbEntity
8
0
100
AcDbSpline
70
4
71
3
72
8
73
4
74
0
42
0.000000001
43
0.0000000001
44
0.0000000001
40
0
40
0
40
0
40
0
40
1
40
1
40
1
40
1
41
1
41
1
41
1
41
1
10
215.26744659382837
20
-1574.2859792849376
30
0
10
225.7646478373604
20
-1577.4509604769464
30
0
10
241.42699294137128
20
-1575.1167868478399
30
0
10
261.7549878764429
20
-1574.9503637665657
30
0
0
SPLINE
5
167
100
AcDbEntity
8
0
100
AcDbSpline
70
4
71
3
72
8
73
4
74
0
42
0.000000001
43
0.0000000001
44
0.0000000001
40
0
40
0
40
0
40
0
40
1
40
1
40
1
40
1
41
1
41
1
41
1
41
1
10
261.7549878764429
20
-1574.9503637665657
30
0
10
282.08298281151451
20
-1574.7837772048583
30
0
10
307.07480885782445
20
-1576.7847777105499
30
0
10
335.90029193915018
20
-1577.9512106033692
30
0
0
SPLINE
5
168
100
AcDbEntity
8
0
100
AcDbSpline
70
4
71
3
72
8
73
4
74
0
42
0.000000001
43
0.0000000001
44
0.0000000001
40
0
40
0
40
0
40
0
40
1
40
1
40
1
40
1
41
1
41
1
41
1
41
1
10
335.90029193915018
20
-1577.9512106033692
30
0
10
364.72577502047591
20
-1579.1174800157551
30
0
10
397.38217683955673
20
-1579.4490183348353
30
0
10
415.54338167434247
20
-1577.6164026756194
30
0
0
SPLINE
5
169
100
AcDbEntity
8
0
100
AcDbSpline
70
4
71
3
72
8
73
4
74
0
42
0.000000001
43
0.0000000001
44
0.0000000001
40
0
40
0
40
0
40
0
40
1
40
1
40
1
40
1
41
1
41
1
41
1
41
1
10
415.54338167434247
20
-1577.6164026756194
30
0
10
433.70458650912826
20
-1575.78362353597
30
0
10
437.37006304821017
20
-1571.7848921332566
30
0
10
438.53661855135465
20
-1566.7869683211647
30
0
0
SPLINE
5
170
100
AcDbEntity
8
0
100
AcDbSpline
70
4
71
3
72
8
73
4
74
0
42
0.000000001
43
0.0000000001
44
0.0000000001
40
0
40
0
40
0
40
0
40
1
40
1
40
1
40
1
41
1
41
1
41
1
41
1
10
438.53661855135465
20
-1566.7869683211647
30
0
10
439.70321492460749
20
-1561.7890445090734
30
0
10
438.37195288474044
20
-1555.7924187289041
30
0
10
436.03961841051046
20
-1553.1255624176831
30
0
0
SPLINE
5
171
100
AcDbEntity
8
0
100
AcDbSpline
70
4
71
3
72
8
73
4
74
0
42
0.000000001
43
0.0000000001
44
0.0000000001
40
0
40
0
40
0
40
0
40
1
40
1
40
1
40
1
41
1
41
1
41
1
41
1
10
436.03961841051046
20
-1553.1255624176831
30
0
10
433.70732480638884
20
-1550.4587061064622
30
0
10
430.37395876790441
20
-1551.1252158337254
30
0
10
423.87585675806127
20
-1551.6251389992815
30
0
0
SPLINE
5
172
100
AcDbEntity
8
0
100
AcDbSpline
70
4
71
3
72
8
73
4
74
0
42
0.000000001
43
0.0000000001
44
0.0000000001
40
0
40
0
40
0
40
0
40
1
40
1
40
1
40
1
41
1
41
1
41
1
41
1
10
423.87585675806127
20
-1551.6251389992815
30
0
10
417.37779561832656
20
-1552.1248986844037
30
0
10
407.71369066376536
20
-1552.4577448469518
30
0
10
393.05121232592057
20
-1549.9586194604726
30
0
0
SPLINE
5
173
100
AcDbEntity
8
0
100
AcDbSpline
70
4
71
3
72
8
73
4
74
0
42
0.000000001
43
0.0000000001
44
0.0000000001
40
0
40
0
40
0
40
0
40
1
40
1
40
1
40
1
41
1
41
1
41
1
41
1
10
393.05121232592057
20
-1549.9586194604726
30
0
10
378.38869311796742
20
-1547.4594940739935
30
0
10
358.72951707128203
20
-1542.1283971384867
30
0
10
344.06671177257022
20
-1535.4639537875864
30
0
0
SPLINE
5
174
100
AcDbEntity
8
0
100
AcDbSpline
70
4
71
3
72
8
73
4
74
0
42
0.000000001
43
0.0000000001
44
0.0000000001
40
0
40
0
40
0
40
0
40
1
40
1
40
1
40
1
41
1
41
1
41
1
41
1
10
344.06671177257022
20
-1535.4639537875864
30
0
10
329.40386560375009
20
-1528.799510436686
30
0
10
319.7377988839873
20
-1520.8005763073575
30
0
10
314.23860319276366
20
-1512.8029500214966
30
0
0
SPLINE
5
175
100
AcDbEntity
8
0
100
AcDbSpline
70
4
71
3
72
8
73
4
74
0
42
0.000000001
43
0.0000000001
44
0.0000000001
40
0
40
0
40
0
40
0
40
1
40
1
40
1
40
1
41
1
41
1
41
1
41
1
10
314.23860319276366
20
-1512.8029500214966
30
0
10
308.73940750153992
20
-1504.8051602552025
30
0
10
307.40875851329838
20
-1496.8091687736764
30
0
10
306.74212617570987
20
-1491.9771776015587
30
0
0
SPLINE
5
176
100
AcDbEntity
8
0
100
AcDbSpline
70
4
71
3
72
8
73
4
74
0
42
0.000000001
43
0.0000000001
44
0.0000000001
40
0
40
0
40
0
40
0
40
1
40
1
40
1
40
1
41
1
41
1
41
1
41
1
10
306.74212617570987
20
-1491.9771776015587
30
0
10
306.07553470822972
20
-1487.1451864294406
30
0
10
306.07340946259461
20
-1485.477686008031
30
0
10
306.57329175804216
20
-1465.1498749884468
30
0
0
SPLINE
5
177
100
AcDbEntity
8
0
100
AcDbSpline
70
4
71
3
72
8
73
4
74
0
42
0.000000001
43
0.0000000001
44
0.0000000001
40
0
40
0
40
0
40
0
40
1
40
1
40
1
40
1
41
1
41
1
41
1
41
1
10
306.57329175804216
20
-1465.1498749884468
30
0
10
307.0731331833814
20
-1444.8222274492964
30
0
10
308.0733064753602
20
-1405.8350867141389
30
0
10
311.73886475465883
20
-1361.6803294769466
30
0
0
SPLINE
5
178
100
AcDbEntity
8
0
100
AcDbSpline
70
4
71
3
72
8
73
4
74
0
42
0.000000001
43
0.0000000001
44
0.0000000001
40
0
40
0
40
0
40
0
40
1
40
1
40
1
40
1
41
1
41
1
41
1
41
1
10
311.73886475465883
20
-1361.6803294769466
30
0
10
315.40446390406589
20
-1317.525572239754
30
0
10
321.73577500165959
20
-1268.2063046287624
30
0
10
328.56717274524283
20
-1235.2148087911733
30
0
0
SPLINE
5
179
100
AcDbEntity
8
0
100
AcDbSpline
70
4
71
3
72
8
73
4
74
0
42
0.000000001
43
0.0000000001
44
0.0000000001
40
0
40
0
40
0
40
0
40
1
40
1
40
1
40
1
41
1
41
1
41
1
41
1
10
328.56717274524283
20
-1235.2148087911733
30
0
10
335.39857048882601
20
-1202.2231494731504
30
0
10
342.73091315067438
20
-1185.5608967328653
30
0
10
346.72980803382143
20
-1176.5634241158928
30
0
0
SPLINE
5
180
100
AcDbEntity
8
0
100
AcDbSpline
70
4
71
3
72
8
73
4
74
0
42
0.000000001
43
0.0000000001
44
0.0000000001
40
0
40
0
40
0
40
0
40
1
40
1
40
1
40
1
41
1
41
1
41
1
41
1
10
346.72980803382143
20
-1176.5634241158928
30
0
10
350.72866204686022
20
-1167.5659514989202
30
0
10
351.39439524206466
20
-1166.2329320443932
30
0
10
354.89340782976421
20
-1158.068719196825
30
0
0
SPLINE
5
181
100
AcDbEntity
8
0
100
AcDbSpline
70
4
71
3
72
8
73
4
74
0
42
0.000000001
43
0.0000000001
44
0.0000000001
40
0
40
0
40
0
40
0
40
1
40
1
40
1
40
1
41
1
41
1
41
1
41
1
10
354.89340782976421
20
-1158.068719196825
30
0
10
358.39242041746377
20
-1149.9043428688233
30
0
10
364.72561154004239
20
-1134.9086096673468
30
0
10
367.39214089039655
20
-1126.2446371346562
30
0
0
SPLINE
5
182
100
AcDbEntity
8
0
100
AcDbSpline
70
4
71
3
72
8
73
4
74
0
42
0.000000001
43
0.0000000001
44
0.0000000001
40
0
40
0
40
0
40
0
40
1
40
1
40
1
40
1
41
1
41
1
41
1
41
1
10
367.39214089039655
20
-1126.2446371346562
30
0
10
370.05862937064228
20
-1117.5806646019655
30
0
10
369.05772041671287
20
-1115.2477988163266
30
0
10
370.3901676897226
20
-1106.9165089657506
30
0
0
SPLINE
5
183
100
AcDbEntity
8
0
100
AcDbSpline
70
4
71
3
72
8
73
4
74
0
42
0.000000001
43
0.0000000001
44
0.0000000001
40
0
40
0
40
0
40
0
40
1
40
1
40
1
40
1
41
1
41
1
41
1
41
1
10
370.3901676897226
20
-1106.9165089657506
30
0
10
371.72265583284064
20
-1098.5852191151744
30
0
10
375.38711061921333
20
-1084.2563226018283
30
0
10
383.2183546939084
20
-1044.4339603320648
30
0
0
SPLINE
5
184
100
AcDbEntity
8
0
100
AcDbSpline
70
4
71
3
72
8
73
4
74
0
42
0.000000001
43
0.0000000001
44
0.0000000001
40
0
40
0
40
0
40
0
40
1
40
1
40
1
40
1
41
1
41
1
41
1
41
1
10
383.2183546939084
20
-1044.4339603320648
30
0
10
391.0495578984951
20
-1004.6117615427349
30
0
10
403.04583384685282
20
-939.29887616435644
30
0
10
410.54390479813287
20
-891.64498372913931
30
0
0
SPLINE
5
185
100
AcDbEntity
8
0
100
AcDbSpline
70
4
71
3
72
8
73
4
74
0
42
0.000000001
43
0.0000000001
44
0.0000000001
40
0
40
0
40
0
40
0
40
1
40
1
40
1
40
1
41
1
41
1
41
1
41
1
10
410.54390479813287
20
-891.64498372913931
30
0
10
418.04197574941298
20
-843.9909278134885
30
0
10
421.04122865199002
20
-813.99831704750113
30
0
10
421.87440668117767
20
-775.1756376284161
30
0
0
SPLINE
5
186
100
AcDbEntity
8
0
100
AcDbSpline
70
4
71
3
72
8
73
4
74
0
42
0.000000001
43
0.0000000001
44
0.0000000001
40
0
40
0
40
0
40
0
40
1
40
1
40
1
40
1
41
1
41
1
41
1
41
1
10
421.87440668117767
20
-775.1756376284161
30
0
10
422.70762558047375
20
-736.35295820933095
30
0
10
421.37509656724723
20
-688.70168146104925
30
0
10
419.0424760022587
20
-648.87899223041904
30
0
0
SPLINE
5
187
100
AcDbEntity
8
0
100
AcDbSpline
70
4
71
3
72
8
73
4
74
0
42
0.000000001
43
0.0000000001
44
0.0000000001
40
0
40
0
40
0
40
0
40
1
40
1
40
1
40
1
41
1
41
1
41
1
41
1
10
419.0424760022587
20
-648.87899223041904
30
0
10
416.70985543727022
20
-609.05630299978839
30
0
10
413.37800159279533
20
-577.06547089547848
30
0
10
410.0456164369117
20
-549.57288465835461
30
0
0
SPLINE
5
188
100
AcDbEntity
8
0
100
AcDbSpline
70
4
71
3
72
8
73
4
74
0
42
0.000000001
43
0.0000000001
44
0.0000000001
40
0
40
0
40
0
40
0
40
1
40
1
40
1
40
1
41
1
41
1
41
1
41
1
10
410.0456164369117
20
-549.57288465835461
30
0
10
406.71323128102802
20
-522.08029842123074
30
0
10
403.37990611265184
20
-499.08612153172612
30
0
10
403.37962002189329
20
-482.25687352864963
30
0
0
SPLINE
5
189
100
AcDbEntity
8
0
100
AcDbSpline
70
4
71
3
72
8
73
4
74
0
42
0.000000001
43
0.0000000001
44
0.0000000001
40
0
40
0
40
0
40
0
40
1
40
1
40
1
40
1
41
1
41
1
41
1
41
1
10
403.37962002189329
20
-482.25687352864963
30
0
10
403.37933393113468
20
-465.42762552557321
30
0
10
406.71282257994426
20
-454.76592209586033
30
0
10
411.0449723267231
20
-442.26923254064644
30
0
0
SPLINE
5
190
100
AcDbEntity
8
0
100
AcDbSpline
70
4
71
3
72
8
73
4
74
0
42
0.000000001
43
0.0000000001
44
0.0000000001
40
0
40
0
40
0
40
0
40
1
40
1
40
1
40
1
41
1
41
1
41
1
41
1
10
411.0449723267231
20
-442.26923254064644
30
0
10
415.37712207350188
20
-429.77262472564917
30
0
10
420.70964946280139
20
-415.44291081013569
30
0
10
424.87525351798115
20
-401.94662014445998
30
0
0
SPLINE
5
191
100
AcDbEntity
8
0
100
AcDbSpline
70
4
71
3
72
8
73
4
74
0
42
0.000000001
43
0.0000000001
44
0.0000000001
40
0
40
0
40
0
40
0
40
1
40
1
40
1
40
1
41
1
41
1
41
1
41
1
10
424.87525351798115
20
-401.94662014445998
30
0
10
429.04085757316079
20
-388.45041121900113
30
0
10
432.03786261977763
20
-375.78754380316326
30
0
10
431.53847076563045
20
-363.95769093607964
30
0
0
SPLINE
5
192
100
AcDbEntity
8
0
100
AcDbSpline
70
4
71
3
72
8
73
4
74
0
42
0.000000001
43
0.0000000001
44
0.0000000001
40
0
40
0
40
0
40
0
40
1
40
1
40
1
40
1
41
1
41
1
41
1
41
1
10
431.53847076563045
20
-363.95769093607964
30
0
10
431.03907891148333
20
-352.12783806899608
30
0
10
427.04132839137054
20
-341.13206237348425
30
0
10
420.37680330025341
20
-330.13497883450452
30
0
0
SPLINE
5
193
100
AcDbEntity
8
0
100
AcDbSpline
70
4
71
3
72
8
73
4
74
0
42
0.000000001
43
0.0000000001
44
0.0000000001
40
0
40
0
40
0
40
0
40
1
40
1
40
1
40
1
41
1
41
1
41
1
41
1
10
420.37680330025341
20
-330.13497883450452
30
0
10
413.71227820913623
20
-319.1378135553083
30
0
10
404.38212291004908
20
-308.14032131524499
30
0
10
397.38356642324118
20
-294.31077578593761
30
0
0
SPLINE
5
194
100
AcDbEntity
8
0
100
AcDbSpline
70
4
71
3
72
8
73
4
74
0
42
0.000000001
43
0.0000000001
44
0.0000000001
40
0
40
0
40
0
40
0
40
1
40
1
40
1
40
1
41
1
41
1
41
1
41
1
10
397.38356642324118
20
-294.31077578593761
30
0
10
390.38500993643339
20
-280.4813119968469
30
0
10
385.72070881894882
20
-263.81848707504446
30
0
10
379.55590254284573
20
-247.98941236394683
30
0
0
SPLINE
5
195
100
AcDbEntity
8
0
100
AcDbSpline
70
4
71
3
72
8
73
4
74
0
42
0.000000001
43
0.0000000001
44
0.0000000001
40
0
40
0
40
0
40
0
40
1
40
1
40
1
40
1
41
1
41
1
41
1
41
1
10
379.55590254284573
20
-247.98941236394683
30
0
10
373.39109626674269
20
-232.16033765284919
30
0
10
362.85780671752184
20
-218.02769939988565
30
0
10
360.56004835497112
20
-205.16979982691637
30
0
0
SPLINE
5
196
100
AcDbEntity
8
0
100
AcDbSpline
70
4
71
3
72
8
73
4
74
0
42
0.000000001
43
0.0000000001
44
0.0000000001
40
0
40
0
40
0
40
0
40
1
40
1
40
1
40
1
41
1
41
1
41
1
41
1
10
360.56004835497112
20
-205.16979982691637
30
0
10
358.14008836840037
20
-191.62806160073558
30
0
10
361.43499563491071
20
-178.80056938839203
30
0
10
352.4075652285045
20
-171.70846122352998
30
0
0
SPLINE
5
197
100
AcDbEntity
8
0
100
AcDbSpline
70
4
71
3
72
8
73
4
74
0
42
0.000000001
43
0.0000000001
44
0.0000000001
40
0
40
0
40
0
40
0
40
1
40
1
40
1
40
1
41
1
41
1
41
1
41
1
10
352.4075652285045
20
-171.70846122352998
30
0
10
326.44793501604306
20
-151.31427714795663
30
0
10
282.49556655548821
20
-156.16735729599256
30
0
10
253.36995383336298
20
-171.70805252244634
30
0
0
SPLINE
5
198
100
AcDbEntity
8
0
100
AcDbSpline
70
4
71
3
72
8
73
4
74
0
42
0.000000001
43
0.0000000001
44
0.0000000001
40
0
40
0
40
0
40
0
40
1
40
1
40
1
40
1
41
1
41
1
41
1
41
1
10
1480.0585669969385
20
93.060607036773604
30
0
10
1468.7774362048021
20
93.060729647098839
30
0
10
1457.5854022489077
20
91.940888677818862
30
0
10
1448.3950227204386
20
89.938008147142341
30
0
0
SPLINE
5
199
100
AcDbEntity
8
0
100
AcDbSpline
70
4
71
3
72
8
73
4
74
0
42
0.000000001
43
0.0000000001
44
0.0000000001
40
0
40
0
40
0
40
0
40
1
40
1
40
1
40
1
41
1
41
1
41
1
41
1
10
1448.3950227204386
20
89.938008147142341
30
0
10
1430.0145906243674
20
85.932287955897806
30
0
10
1419.6473154553369
20
78.390118157688704
30
0
10
1411.6351394108972
20
64.25118590803649
30
0
0
SPLINE
5
200
100
AcDbEntity
8
0
100
AcDbSpline
70
4
71
3
72
8
73
4
74
0
42
0.000000001
43
0.0000000001
44
0.0000000001
40
0
40
0
40
0
40
0
40
1
40
1
40
1
40
1
41
1
41
1
41
1
41
1
10
1411.6351394108972
20
64.25118590803649
30
0
10
1403.623126846891
20
50.112417138817733
30
0
10
1397.9668673292097
20
29.377212879022778
30
0
10
1395.4268718343624
20
9.8215199467249192
30
0
0
SPLINE
5
201
100
AcDbEntity
8
0
100
AcDbSpline
70
4
71
3
72
8
73
4
74
0
42
0.000000001
43
0.0000000001
44
0.0000000001
40
0
40
0
40
0
40
0
40
1
40
1
40
1
40
1
41
1
41
1
41
1
41
1
10
1395.4268718343624
20
9.8215199467249192
30
0
10
1392.8868763395153
20
-9.7341729855730819
30
0
10
1393.4621639849015
20
-28.108474565388946
30
0
10
1397.7659498764731
20
-43.910575004963874
30
0
0
SPLINE
5
202
100
AcDbEntity
8
0
100
AcDbSpline
70
4
71
3
72
8
73
4
74
0
42
0.000000001
43
0.0000000001
44
0.0000000001
40
0
40
0
40
0
40
0
40
1
40
1
40
1
40
1
41
1
41
1
41
1
41
1
10
1397.7659498764731
20
-43.910575004963874
30
0
10
1402.0697357680444
20
-59.712675444538661
30
0
10
1410.1023468666681
20
-72.940367758020557
30
0
10
1416.2441432717601
20
-85.932893467953733
30
0
0
SPLINE
5
203
100
AcDbEntity
8
0
100
AcDbSpline
70
4
71
3
72
8
73
4
74
0
42
0.000000001
43
0.0000000001
44
0.0000000001
40
0
40
0
40
0
40
0
40
1
40
1
40
1
40
1
41
1
41
1
41
1
41
1
10
1416.2441432717601
20
-85.932893467953733
30
0
10
1422.3859396768521
20
-98.925500918103495
30
0
10
1426.6354500645111
20
-111.68147044080342
30
0
10
1428.9975788477411
20
-125.6188313159852
30
0
0
SPLINE
5
204
100
AcDbEntity
8
0
100
AcDbSpline
70
4
71
3
72
8
73
4
74
0
42
0.000000001
43
0.0000000001
44
0.0000000001
40
0
40
0
40
0
40
0
40
1
40
1
40
1
40
1
41
1
41
1
41
1
41
1
10
1428.9975788477411
20
-125.6188313159852
30
0
10
1431.3595441505377
20
-139.55611045095026
30
0
10
1431.8339643684722
20
-154.67518963948109
30
0
10
1429.9442940379749
20
-163.8873120656018
30
0
0
SPLINE
5
205
100
AcDbEntity
8
0
100
AcDbSpline
70
4
71
3
72
8
73
4
74
0
42
0.000000001
43
0.0000000001
44
0.0000000001
40
0
40
0
40
0
40
0
40
1
40
1
40
1
40
1
41
1
41
1
41
1
41
1
10
1429.9442940379749
20
-163.8873120656018
30
0
10
1428.0546237074773
20
-173.09943449172252
30
0
10
1423.8010263089816
20
-176.40541755760054
30
0
10
1401.8325256590774
20
-181.36623131129411
30
0
0
SPLINE
5
206
100
AcDbEntity
8
0
100
AcDbSpline
70
4
71
3
72
8
73
4
74
0
42
0.000000001
43
0.0000000001
44
0.0000000001
40
0
40
0
40
0
40
0
40
1
40
1
40
1
40
1
41
1
41
1
41
1
41
1
10
1401.8325256590774
20
-181.36623131129411
30
0
10
1379.864025009173
20
-186.32696332477096
30
0
10
1340.1796402252594
20
-192.94170862389606
30
0
10
1319.3906509028525
20
-198.13916030503975
30
0
0
SPLINE
5
207
100
AcDbEntity
8
0
100
AcDbSpline
70
4
71
3
72
8
73
4
74
0
42
0.000000001
43
0.0000000001
44
0.0000000001
40
0
40
0
40
0
40
0
40
1
40
1
40
1
40
1
41
1
41
1
41
1
41
1
10
1319.3906509028525
20
-198.13916030503975
30
0
10
1298.6017433206621
20
-203.33653024596657
30
0
10
1296.7114190684308
20
-207.11513524501072
30
0
10
1304.035097267305
20
-222.94282037242397
30
0
0
SPLINE
5
208
100
AcDbEntity
8
0
100
AcDbSpline
70
4
71
3
72
8
73
4
74
0
42
0.000000001
43
0.0000000001
44
0.0000000001
40
0
40
0
40
0
40
0
40
1
40
1
40
1
40
1
41
1
41
1
41
1
41
1
10
1304.035097267305
20
-222.94282037242397
30
0
10
1311.3586937259627
20
-238.77050549983707
30
0
10
1327.8942491303076
20
-266.64620813280152
30
0
10
1336.6342400645624
20
-296.88322214682887
30
0
0
SPLINE
5
209
100
AcDbEntity
8
0
100
AcDbSpline
70
4
71
3
72
8
73
4
74
0
42
0.000000001
43
0.0000000001
44
0.0000000001
40
0
40
0
40
0
40
0
40
1
40
1
40
1
40
1
41
1
41
1
41
1
41
1
10
1336.6342400645624
20
-296.88322214682887
30
0
10
1345.3742309988174
20
-327.12031790107289
30
0
10
1346.320292267317
20
-359.71888851681314
30
0
10
1349.1550429837137
20
-401.05875791027614
30
0
0
SPLINE
5
210
100
AcDbEntity
8
0
100
AcDbSpline
70
4
71
3
72
8
73
4
74
0
42
0.000000001
43
0.0000000001
44
0.0000000001
40
0
40
0
40
0
40
0
40
1
40
1
40
1
40
1
41
1
41
1
41
1
41
1
10
1349.1550429837137
20
-401.05875791027614
30
0
10
1351.9897937001099
20
-442.39862730373915
30
0
10
1356.714378227437
20
-492.47693456733913
30
0
10
1353.4071690583078
20
-536.65130945654823
30
0
0
SPLINE
5
211
100
AcDbEntity
8
0
100
AcDbSpline
70
4
71
3
72
8
73
4
74
0
42
0.000000001
43
0.0000000001
44
0.0000000001
40
0
40
0
40
0
40
0
40
1
40
1
40
1
40
1
41
1
41
1
41
1
41
1
10
1353.4071690583078
20
-536.65130945654823
30
0
10
1350.0997964087455
20
-580.82568434575728
30
0
10
1338.7612839844605
20
-619.09449205624071
30
0
10
1328.603427250707
20
-663.97788158541607
30
0
0
SPLINE
5
212
100
AcDbEntity
8
0
100
AcDbSpline
70
4
71
3
72
8
73
4
74
0
42
0.000000001
43
0.0000000001
44
0.0000000001
40
0
40
0
40
0
40
0
40
1
40
1
40
1
40
1
41
1
41
1
41
1
41
1
10
1328.603427250707
20
-663.97788158541607
30
0
10
1318.4457339973869
20
-708.86127111459109
30
0
10
1309.4690233954652
20
-760.35531893205439
30
0
10
1309.4691868758989
20
-813.27066563811945
30
0
0
SPLINE
5
213
100
AcDbEntity
8
0
100
AcDbSpline
70
4
71
3
72
8
73
4
74
0
42
0.000000001
43
0.0000000001
44
0.0000000001
40
0
40
0
40
0
40
0
40
1
40
1
40
1
40
1
41
1
41
1
41
1
41
1
10
1309.4691868758989
20
-813.27066563811945
30
0
10
1309.4693503563324
20
-866.18584886375083
30
0
10
1318.4437722321854
20
-920.51840744758033
30
0
10
1326.9480243813744
20
-971.54375686228093
30
0
0
SPLINE
5
214
100
AcDbEntity
8
0
100
AcDbSpline
70
4
71
3
72
8
73
4
74
0
42
0.000000001
43
0.0000000001
44
0.0000000001
40
0
40
0
40
0
40
0
40
1
40
1
40
1
40
1
41
1
41
1
41
1
41
1
10
1326.9480243813744
20
-971.54375686228093
30
0
10
1335.4522765305635
20
-1022.5689427965481
30
0
10
1343.4837432661527
20
-1070.2846308356175
30
0
10
1350.3343908307772
20
-1131.9399684759373
30
0
0
SPLINE
5
215
100
AcDbEntity
8
0
100
AcDbSpline
70
4
71
3
72
8
73
4
74
0
42
0.000000001
43
0.0000000001
44
0.0000000001
40
0
40
0
40
0
40
0
40
1
40
1
40
1
40
1
41
1
41
1
41
1
41
1
10
1350.3343908307772
20
-1131.9399684759373
30
0
10
1357.1848749149681
20
-1193.595306116257
30
0
10
1362.8558476716621
20
-1269.1858793861238
30
0
10
1361.1721626873386
20
-1338.2561990474117
30
0
0
SPLINE
5
216
100
AcDbEntity
8
0
100
AcDbSpline
70
4
71
3
72
8
73
4
74
0
42
0.000000001
43
0.0000000001
44
0.0000000001
40
0
40
0
40
0
40
0
40
1
40
1
40
1
40
1
41
1
41
1
41
1
41
1
10
1361.1721626873386
20
-1338.2561990474117
30
0
10
1359.4884777030154
20
-1407.3266821891332
30
0
10
1350.4502984581084
20
-1469.8731516723064
30
0
10
1348.5544158711391
20
-1508.9726034652588
30
0
0
SPLINE
5
217
100
AcDbEntity
8
0
100
AcDbSpline
70
4
71
3
72
8
73
4
74
0
42
0.000000001
43
0.0000000001
44
0.0000000001
40
0
40
0
40
0
40
0
40
1
40
1
40
1
40
1
41
1
41
1
41
1
41
1
10
1348.5544158711391
20
-1508.9726034652588
30
0
10
1346.6585332841696
20
-1548.0718917777776
30
0
10
1351.9057647573054
20
-1563.7243258805095
30
0
10
1355.9456932292539
20
-1575.8898858177267
30
0
0
SPLINE
5
218
100
AcDbEntity
8
0
100
AcDbSpline
70
4
71
3
72
8
73
4
74
0
42
0.000000001
43
0.0000000001
44
0.0000000001
40
0
40
0
40
0
40
0
40
1
40
1
40
1
40
1
41
1
41
1
41
1
41
1
10
1355.9456932292539
20
-1575.8898858177267
30
0
10
1356.3581543629027
20
-1577.1326640729774
30
0
10
1356.7456029902301
20
-1578.1805736515298
30
0
10
1357.1415526000983
20
-1579.3502761530185
30
0
0
LINE
5
219
100
AcDbEntity
8
0
100
AcDbLine
10
1357.1415526000985
20
-1579.3502761530185
30
0
11
1464.2928409538108
21
-1579.3502761530185
31
0
0
SPLINE
5
220
100
AcDbEntity
8
0
100
AcDbSpline
70
4
71
3
72
8
73
4
74
0
42
0.000000001
43
0.0000000001
44
0.0000000001
40
0
40
0
40
0
40
0
40
1
40
1
40
1
40
1
41
1
41
1
41
1
41
1
10
1464.2928409538108
20
-1579.3502761530185
30
0
10
1464.1584600374974
20
-1576.4625577761774
30
0
10
1463.8985261482776
20
-1573.1643400308894
30
0
10
1463.6284564721827
20
-1569.2184128081872
30
0
0
SPLINE
5
221
100
AcDbEntity
8
0
100
AcDbSpline
70
4
71
3
72
8
73
4
74
0
42
0.000000001
43
0.0000000001
44
0.0000000001
40
0
40
0
40
0
40
0
40
1
40
1
40
1
40
1
41
1
41
1
41
1
41
1
10
1463.6284564721827
20
-1569.2184128081872
30
0
10
1462.5115581507052
20
-1552.887044465248
30
0
10
1461.3428365318171
20
-1526.3943862994529
30
0
10
1458.1665751898986
20
-1490.5274331175328
30
0
0
SPLINE
5
222
100
AcDbEntity
8
0
100
AcDbSpline
70
4
71
3
72
8
73
4
74
0
42
0.000000001
43
0.0000000001
44
0.0000000001
40
0
40
0
40
0
40
0
40
1
40
1
40
1
40
1
41
1
41
1
41
1
41
1
10
1458.1665751898986
20
-1490.5274331175328
30
0
10
1454.9903138479806
20
-1454.6606434160467
30
0
10
1449.807657146066
20
-1409.4211935027704
30
0
10
1446.9800995687424
20
-1385.3858097324858
30
0
0
SPLINE
5
223
100
AcDbEntity
8
0
100
AcDbSpline
70
4
71
3
72
8
73
4
74
0
42
0.000000001
43
0.0000000001
44
0.0000000001
40
0
40
0
40
0
40
0
40
1
40
1
40
1
40
1
41
1
41
1
41
1
41
1
10
1446.9800995687424
20
-1385.3858097324858
30
0
10
1444.1523785109853
20
-1361.3505894426341
30
0
10
1443.6797565778193
20
-1358.5225414240103
30
0
10
1444.1509071870842
20
-1325.2979224882911
30
0
0
SPLINE
5
224
100
AcDbEntity
8
0
100
AcDbSpline
70
4
71
3
72
8
73
4
74
0
42
0.000000001
43
0.0000000001
44
0.0000000001
40
0
40
0
40
0
40
0
40
1
40
1
40
1
40
1
41
1
41
1
41
1
41
1
10
1444.1509071870842
20
-1325.2979224882911
30
0
10
1444.6217308354821
20
-1292.0729765917044
30
0
10
1446.0360000654443
20
-1228.4529311019237
30
0
10
1450.0417611267972
20
-1146.6863940163696
30
0
0
SPLINE
5
225
100
AcDbEntity
8
0
100
AcDbSpline
70
4
71
3
72
8
73
4
74
0
42
0.000000001
43
0.0000000001
44
0.0000000001
40
0
40
0
40
0
40
0
40
1
40
1
40
1
40
1
41
1
41
1
41
1
41
1
10
1450.0417611267972
20
-1146.6863940163696
30
0
10
1454.0475221881502
20
-1064.9198569308157
30
0
10
1460.6459194439281
20
-965.01058829945828
30
0
10
1465.3585698996119
20
-913.16898108043438
30
0
0
SPLINE
5
226
100
AcDbEntity
8
0
100
AcDbSpline
70
4
71
3
72
8
73
4
74
0
42
0.000000001
43
0.0000000001
44
0.0000000001
40
0
40
0
40
0
40
0
40
1
40
1
40
1
40
1
41
1
41
1
41
1
41
1
10
1465.3585698996119
20
-913.16898108043438
30
0
10
1470.0713838357292
20
-861.32753734184405
30
0
10
1472.8999222956534
20
-857.55653418295628
30
0
10
1477.8489654581372
20
-861.56294916604281
30
0
0
SPLINE
5
227
100
AcDbEntity
8
0
100
AcDbSpline
70
4
71
3
72
8
73
4
74
0
42
0.000000001
43
0.0000000001
44
0.0000000001
40
0
40
0
40
0
40
0
40
1
40
1
40
1
40
1
41
1
41
1
41
1
41
1
10
1477.8489654581372
20
-861.56294916604281
30
0
10
1482.7978451401873
20
-865.56952762956314
30
0
10
1489.8662486421958
20
-877.35237987202368
30
0
10
1495.7569391014754
20
-909.16322001908156
30
0
0
SPLINE
5
228
100
AcDbEntity
8
0
100
AcDbSpline
70
4
71
3
72
8
73
4
74
0
42
0.000000001
43
0.0000000001
44
0.0000000001
40
0
40
0
40
0
40
0
40
1
40
1
40
1
40
1
41
1
41
1
41
1
41
1
10
1495.7569391014754
20
-909.16322001908156
30
0
10
1501.6474660803217
20
-940.97438712700614
30
0
10
1506.360280016439
20
-992.81223429606007
30
0
10
1513.4295009206151
20
-1039.2331573020351
30
0
0
SPLINE
5
229
100
AcDbEntity
8
0
100
AcDbSpline
70
4
71
3
72
8
73
4
74
0
42
0.000000001
43
0.0000000001
44
0.0000000001
40
0
40
0
40
0
40
0
40
1
40
1
40
1
40
1
41
1
41
1
41
1
41
1
10
1513.4295009206151
20
-1039.2331573020351
30
0
10
1520.4987218247907
20
-1085.65408030801
30
0
10
1529.9228783731241
20
-1126.6556269444036
30
0
10
1533.9284759540437
20
-1169.0704619281587
30
0
0
SPLINE
5
230
100
AcDbEntity
8
0
100
AcDbSpline
70
4
71
3
72
8
73
4
74
0
42
0.000000001
43
0.0000000001
44
0.0000000001
40
0
40
0
40
0
40
0
40
1
40
1
40
1
40
1
41
1
41
1
41
1
41
1
10
1533.9284759540437
20
-1169.0704619281587
30
0
10
1537.9342370153963
20
-1211.4852969119136
30
0
10
1536.521275628902
20
-1255.3130932821632
30
0
10
1537.228165023233
20
-1311.6307947696375
30
0
0
SPLINE
5
231
100
AcDbEntity
8
0
100
AcDbSpline
70
4
71
3
72
8
73
4
74
0
42
0.000000001
43
0.0000000001
44
0.0000000001
40
0
40
0
40
0
40
0
40
1
40
1
40
1
40
1
41
1
41
1
41
1
41
1
10
1537.228165023233
20
-1311.6307947696375
30
0
10
1537.9350544175641
20
-1367.9483327766784
30
0
10
1540.7640833187886
20
-1436.752669772708
30
0
10
1540.2926057486568
20
-1478.2250400574999
30
0
0
SPLINE
5
232
100
AcDbEntity
8
0
100
AcDbSpline
70
4
71
3
72
8
73
4
74
0
42
0.000000001
43
0.0000000001
44
0.0000000001
40
0
40
0
40
0
40
0
40
1
40
1
40
1
40
1
41
1
41
1
41
1
41
1
10
1540.2926057486568
20
-1478.2250400574999
30
0
10
1539.8211281785248
20
-1519.6977373031584
30
0
10
1536.0497980587702
20
-1533.8358521506434
30
0
10
1533.8728926066633
20
-1546.1390626128436
30
0
0
SPLINE
5
233
100
AcDbEntity
8
0
100
AcDbSpline
70
4
71
3
72
8
73
4
74
0
42
0.000000001
43
0.0000000001
44
0.0000000001
40
0
40
0
40
0
40
0
40
1
40
1
40
1
40
1
41
1
41
1
41
1
41
1
10
1533.8728926066633
20
-1546.1390626128436
30
0
10
1531.9616428589475
20
-1556.9411957349087
30
0
10
1531.3400902508888
20
-1566.5345545318849
30
0
10
1531.6804565133766
20
-1579.3499491921516
30
0
0
LINE
5
234
100
AcDbEntity
8
0
100
AcDbLine
10
1531.6804565133766
20
-1579.3499491921521
30
0
11
1639.1887861337912
21
-1579.3499491921516
31
0
0
SPLINE
5
235
100
AcDbEntity
8
0
100
AcDbSpline
70
4
71
3
72
8
73
4
74
0
42
0.000000001
43
0.0000000001
44
0.0000000001
40
0
40
0
40
0
40
0
40
1
40
1
40
1
40
1
41
1
41
1
41
1
41
1
10
1639.1887861337912
20
-1579.3499491921516
30
0
10
1635.2368101350503
20
-1564.8526678323299
30
0
10
1631.7489550869354
20
-1553.3207580552482
30
0
10
1628.279082886502
20
-1535.5337599326788
30
0
0
SPLINE
5
236
100
AcDbEntity
8
0
100
AcDbSpline
70
4
71
3
72
8
73
4
74
0
42
0.000000001
43
0.0000000001
44
0.0000000001
40
0
40
0
40
0
40
0
40
1
40
1
40
1
40
1
41
1
41
1
41
1
41
1
10
1628.279082886502
20
-1535.5337599326788
30
0
10
1624.1781762128687
20
-1514.5121379534417
30
0
10
1619.9378207294842
20
-1483.8798282512801
30
0
10
1620.4088078583159
20
-1433.924621754084
30
0
0
SPLINE
5
237
100
AcDbEntity
8
0
100
AcDbSpline
70
4
71
3
72
8
73
4
74
0
42
0.000000001
43
0.0000000001
44
0.0000000001
40
0
40
0
40
0
40
0
40
1
40
1
40
1
40
1
41
1
41
1
41
1
41
1
10
1620.4088078583159
20
-1433.924621754084
30
0
10
1620.8796315067136
20
-1383.9692517764547
30
0
10
1626.0634325716624
20
-1314.6953989754948
30
0
10
1626.7703219659934
20
-1260.2627903663806
30
0
0
SPLINE
5
238
100
AcDbEntity
8
0
100
AcDbSpline
70
4
71
3
72
8
73
4
74
0
42
0.000000001
43
0.0000000001
44
0.0000000001
40
0
40
0
40
0
40
0
40
1
40
1
40
1
40
1
41
1
41
1
41
1
41
1
10
1626.7703219659934
20
-1260.2627903663806
30
0
10
1627.4773748407576
20
-1205.8301817572665
30
0
10
1623.7070256036036
20
-1166.2430678312685
30
0
10
1622.9999727288393
20
-1136.0810913362047
30
0
0
SPLINE
5
239
100
AcDbEntity
8
0
100
AcDbSpline
70
4
71
3
72
8
73
4
74
0
42
0.000000001
43
0.0000000001
44
0.0000000001
40
0
40
0
40
0
40
0
40
1
40
1
40
1
40
1
41
1
41
1
41
1
41
1
10
1622.9999727288393
20
-1136.0810913362047
30
0
10
1622.2929198540751
20
-1105.9189513607071
30
0
10
1624.6476920177988
20
-1085.1827662183114
30
0
10
1630.0673953482469
20
-1044.8887628979828
30
0
0
SPLINE
5
240
100
AcDbEntity
8
0
100
AcDbSpline
70
4
71
3
72
8
73
4
74
0
42
0.000000001
43
0.0000000001
44
0.0000000001
40
0
40
0
40
0
40
0
40
1
40
1
40
1
40
1
41
1
41
1
41
1
41
1
10
1630.0673953482469
20
-1044.8887628979828
30
0
10
1635.4870986786952
20
-1004.5945960972201
30
0
10
1643.9715696954343
20
-944.74408244242591
30
0
10
1646.3283036243597
20
-872.6387485337392
30
0
0
SPLINE
5
241
100
AcDbEntity
8
0
100
AcDbSpline
70
4
71
3
72
8
73
4
74
0
42
0.000000001
43
0.0000000001
44
0.0000000001
40
0
40
0
40
0
40
0
40
1
40
1
40
1
40
1
41
1
41
1
41
1
41
1
10
1646.3283036243597
20
-872.6387485337392
30
0
10
1648.6848740728519
20
-800.53357810548562
30
0
10
1644.9146883161316
20
-716.17849183634348
30
0
10
1638.3167815016541
20
-652.55583065962719
30
0
0
SPLINE
5
242
100
AcDbEntity
8
0
100
AcDbSpline
70
4
71
3
72
8
73
4
74
0
42
0.000000001
43
0.0000000001
44
0.0000000001
40
0
40
0
40
0
40
0
40
1
40
1
40
1
40
1
41
1
41
1
41
1
41
1
10
1638.3167815016541
20
-652.55583065962719
30
0
10
1631.7192016480435
20
-588.93325122312774
30
0
10
1622.2947181388431
20
-546.04840999314206
30
0
10
1620.1735595145501
20
-512.11600252070753
30
0
0
SPLINE
5
243
100
AcDbEntity
8
0
100
AcDbSpline
70
4
71
3
72
8
73
4
74
0
42
0.000000001
43
0.0000000001
44
0.0000000001
40
0
40
0
40
0
40
0
40
1
40
1
40
1
40
1
41
1
41
1
41
1
41
1
10
1620.1735595145501
20
-512.11600252070753
30
0
10
1618.0525643706906
20
-478.18359504827299
30
0
10
1623.2355480334718
20
-453.2074631235763
30
0
10
1628.8908266685526
20
-419.98251722698978
30
0
0
SPLINE
5
244
100
AcDbEntity
8
0
100
AcDbSpline
70
4
71
3
72
8
73
4
74
0
42
0.000000001
43
0.0000000001
44
0.0000000001
40
0
40
0
40
0
40
0
40
1
40
1
40
1
40
1
41
1
41
1
41
1
41
1
10
1628.8908266685526
20
-419.98251722698978
30
0
10
1634.5462687840666
20
-386.75757133040338
30
0
10
1640.6726980284122
20
-345.28577322712891
30
0
10
1648.4486448464854
20
-314.88797620678241
30
0
0
SPLINE
5
245
100
AcDbEntity
8
0
100
AcDbSpline
70
4
71
3
72
8
73
4
74
0
42
0.000000001
43
0.0000000001
44
0.0000000001
40
0
40
0
40
0
40
0
40
1
40
1
40
1
40
1
41
1
41
1
41
1
41
1
10
1648.4486448464854
20
-314.88797620678241
30
0
10
1656.2245916645588
20
-284.49017918643574
30
0
10
1665.6492386541927
20
-265.16916241638626
30
0
10
1672.4828842537361
20
-252.20884235184698
30
0
0
SPLINE
5
246
100
AcDbEntity
8
0
100
AcDbSpline
70
4
71
3
72
8
73
4
74
0
42
0.000000001
43
0.0000000001
44
0.0000000001
40
0
40
0
40
0
40
0
40
1
40
1
40
1
40
1
41
1
41
1
41
1
41
1
10
1672.4828842537361
20
-252.20884235184698
30
0
10
1679.316366372846
20
-239.24852228730785
30
0
10
1683.5591740627328
20
-232.65077895326385
30
0
10
1678.6119291850173
20
-222.7544909130647
30
0
0
SPLINE
5
247
100
AcDbEntity
8
0
100
AcDbSpline
70
4
71
3
72
8
73
4
74
0
42
0.000000001
43
0.0000000001
44
0.0000000001
40
0
40
0
40
0
40
0
40
1
40
1
40
1
40
1
41
1
41
1
41
1
41
1
10
1678.6119291850173
20
-222.7544909130647
30
0
10
1673.6645208268683
20
-212.85820287286569
30
0
10
1659.524607694615
20
-199.66222576347718
30
0
10
1643.972550578035
20
-189.76503858089401
30
0
0
SPLINE
5
248
100
AcDbEntity
8
0
100
AcDbSpline
70
4
71
3
72
8
73
4
74
0
42
0.000000001
43
0.0000000001
44
0.0000000001
40
0
40
0
40
0
40
0
40
1
40
1
40
1
40
1
41
1
41
1
41
1
41
1
10
1643.972550578035
20
-189.76503858089401
30
0
10
1628.4206569418884
20
-179.86785139831085
30
0
10
1611.4551479975134
20
-173.26994458383339
30
0
10
1591.1901134643824
20
-170.91312891469101
30
0
0
SPLINE
5
249
100
AcDbEntity
8
0
100
AcDbSpline
70
4
71
3
72
8
73
4
74
0
42
0.000000001
43
0.0000000001
44
0.0000000001
40
0
40
0
40
0
40
0
40
1
40
1
40
1
40
1
41
1
41
1
41
1
41
1
10
1591.1901134643824
20
-170.91312891469101
30
0
10
1570.9250789312518
20
-168.55631324554878
30
0
10
1547.3614996919655
20
-170.44116090325872
30
0
10
1535.1078238011073
20
-164.78686315077894
30
0
0
SPLINE
5
250
100
AcDbEntity
8
0
100
AcDbSpline
70
4
71
3
72
8
73
4
74
0
42
0.000000001
43
0.0000000001
44
0.0000000001
40
0
40
0
40
0
40
0
40
1
40
1
40
1
40
1
41
1
41
1
41
1
41
1
10
1535.1078238011073
20
-164.78686315077894
30
0
10
1522.8541479102487
20
-159.13240191786571
30
0
10
1521.9113562504183
20
-145.93667002912738
30
0
10
1522.1467680746173
20
-137.21768633057351
30
0
0
SPLINE
5
251
100
AcDbEntity
8
0
100
AcDbSpline
70
4
71
3
72
8
73
4
74
0
42
0.000000001
43
0.0000000001
44
0.0000000001
40
0
40
0
40
0
40
0
40
1
40
1
40
1
40
1
41
1
41
1
41
1
41
1
10
1522.1467680746173
20
-137.21768633057351
30
0
10
1522.3820164183828
20
-128.49862089180291
30
0
10
1523.7957952070446
20
-124.25679408451714
30
0
10
1530.1581267168897
20
-114.59534568699993
30
0
0
SPLINE
5
252
100
AcDbEntity
8
0
100
AcDbSpline
70
4
71
3
72
8
73
4
74
0
42
0.000000001
43
0.0000000001
44
0.0000000001
40
0
40
0
40
0
40
0
40
1
40
1
40
1
40
1
41
1
41
1
41
1
41
1
10
1530.1581267168897
20
-114.59534568699993
30
0
10
1536.5204582267347
20
-104.93389728948273
30
0
10
1547.831342457763
20
-89.854707326718994
30
0
10
1555.1363021470047
20
-70.532791414285327
30
0
0
SPLINE
5
253
100
AcDbEntity
8
0
100
AcDbSpline
70
4
71
3
72
8
73
4
74
0
42
0.000000001
43
0.0000000001
44
0.0000000001
40
0
40
0
40
0
40
0
40
1
40
1
40
1
40
1
41
1
41
1
41
1
41
1
10
1555.1363021470047
20
-70.532791414285327
30
0
10
1562.4410983558132
20
-51.210957242068389
30
0
10
1565.7394795815346
20
-27.646233639748203
30
0
10
1565.0327536676373
20
-4.5538867499439561
30
0
0
SPLINE
5
254
100
AcDbEntity
8
0
100
AcDbSpline
70
4
71
3
72
8
73
4
74
0
42
0.000000001
43
0.0000000001
44
0.0000000001
40
0
40
0
40
0
40
0
40
1
40
1
40
1
40
1
41
1
41
1
41
1
41
1
10
1565.0327536676373
20
-4.5538867499439561
30
0
10
1564.3261912341734
20
18.538460139860291
30
0
10
1559.6153390632576
20
41.159738160616399
30
0
10
1551.3685685967862
20
57.654668677243563
30
0
0
SPLINE
5
255
100
AcDbEntity
8
0
100
AcDbSpline
70
4
71
3
72
8
73
4
74
0
42
0.000000001
43
0.0000000001
44
0.0000000001
40
0
40
0
40
0
40
0
40
1
40
1
40
1
40
1
41
1
41
1
41
1
41
1
10
1551.3685685967862
20
57.654668677243563
30
0
10
1543.1217981303148
20
74.149517453653999
30
0
10
1531.3395998095884
20
84.515729999866949
30
0
10
1512.2529322409205
20
89.464854902567339
30
0
0
SPLINE
5
256
100
AcDbEntity
8
0
100
AcDbSpline
70
4
71
3
72
8
73
4
74
0
42
0.000000001
43
0.0000000001
44
0.0000000001
40
0
40
0
40
0
40
0
40
1
40
1
40
1
40
1
41
1
41
1
41
1
41
1
10
1512.2529322409205
20
89.464854902567339
30
0
10
1502.7095984565863
20
91.939376483809241
30
0
10
1491.3390438673409
20
93.060688776990474
30
0
10
1480.0585669969385
20
93.060607036773604
30
0
0
LWPOLYLINE
5
257
100
AcDbEntity
8
0
100
AcDbPolyline
90
4
70
1
43
0.0
10
1402.752969752122
20
-761.19955593777627
10
1398.7529697521222
20
-761.19955593777627
10
1398.7529697521222
20
-1620
10
1402.752969752122
20
-1620
0
SPLINE
5
258
100
AcDbEntity
8
0
100
AcDbSpline
70
4
71
3
72
8
73
4
74
0
42
0.000000001
43
0.0000000001
44
0.0000000001
40
0
40
0
40
0
40
0
40
1
40
1
40
1
40
1
41
1
41
1
41
1
41
1
10
-379.49706587731657
20
-295.07295339466799
30
0
10
-375.98497686836583
20
-283.57882255103817
30
0
10
-368.96052473314398
20
-260.58969935219989
30
0
10
-359.38139707015125
20
-243.66655749773898
30
0
0
SPLINE
5
259
100
AcDbEntity
8
0
100
AcDbSpline
70
4
71
3
72
8
73
4
74
0
42
0.000000001
43
0.0000000001
44
0.0000000001
40
0
40
0
40
0
40
0
40
1
40
1
40
1
40
1
41
1
41
1
41
1
41
1
10
-359.38139707015125
20
-243.66655749773898
30
0
10
-349.80228898696726
20
-226.74337648366082
30
0
10
-337.66936688759085
20
-215.88762571979686
30
0
10
-326.653002953738
20
-210.45971117824763
30
0
0
SPLINE
5
260
100
AcDbEntity
8
0
100
AcDbSpline
70
4
71
3
72
8
73
4
74
0
42
0.000000001
43
0.0000000001
44
0.0000000001
40
0
40
0
40
0
40
0
40
1
40
1
40
1
40
1
41
1
41
1
41
1
41
1
10
-326.653002953738
20
-210.45971117824763
30
0
10
-315.63663901988502
20
-205.03175747708121
30
0
10
-305.73873249299015
20
-205.03175747708121
30
0
10
-297.43714818187323
20
-209.6623822122244
30
0
0
SPLINE
5
261
100
AcDbEntity
8
0
100
AcDbSpline
70
4
71
3
72
8
73
4
74
0
42
0.000000001
43
0.0000000001
44
0.0000000001
40
0
40
0
40
0
40
0
40
1
40
1
40
1
40
1
41
1
41
1
41
1
41
1
10
-297.43714818187323
20
-209.6623822122244
30
0
10
-289.13556387075636
20
-214.29296778775034
30
0
10
-282.43055631292924
20
-223.55229843679339
30
0
10
-278.43987804224025
20
-238.23997438317491
30
0
0
SPLINE
5
262
100
AcDbEntity
8
0
100
AcDbSpline
70
4
71
3
72
8
73
4
74
0
42
0.000000001
43
0.0000000001
44
0.0000000001
40
0
40
0
40
0
40
0
40
1
40
1
40
1
40
1
41
1
41
1
41
1
41
1
10
-278.43987804224025
20
-238.23997438317491
30
0
10
-274.44919977155132
20
-252.92765032955651
30
0
10
-273.17206759565624
20
-273.04269258284637
30
0
10
-273.9704538713442
20
-293.4775514298945
30
0
0
SPLINE
5
263
100
AcDbEntity
8
0
100
AcDbSpline
70
4
71
3
72
8
73
4
74
0
42
0.000000001
43
0.0000000001
44
0.0000000001
40
0
40
0
40
0
40
0
40
1
40
1
40
1
40
1
41
1
41
1
41
1
41
1
10
-273.9704538713442
20
-293.4775514298945
30
0
10
-274.76884014703211
20
-313.91244943655977
30
0
10
-277.64243159736543
20
-334.66614588693585
30
0
10
-278.75985127446739
20
-363.88196149918343
30
0
0
SPLINE
5
264
100
AcDbEntity
8
0
100
AcDbSpline
70
4
71
3
72
8
73
4
74
0
42
0.000000001
43
0.0000000001
44
0.0000000001
40
0
40
0
40
0
40
0
40
1
40
1
40
1
40
1
41
1
41
1
41
1
41
1
10
-278.75985127446739
20
-363.88196149918343
30
0
10
-279.87727095156936
20
-393.09777711143084
30
0
10
-279.23867549390894
20
-430.77363642583759
30
0
10
-279.07910005377607
20
-459.03129452417829
30
0
0
SPLINE
5
265
100
AcDbEntity
8
0
100
AcDbSpline
70
4
71
3
72
8
73
4
74
0
42
0.000000001
43
0.0000000001
44
0.0000000001
40
0
40
0
40
0
40
0
40
1
40
1
40
1
40
1
41
1
41
1
41
1
41
1
10
-279.07910005377607
20
-459.03129452417829
30
0
10
-278.91946587421745
20
-487.28895262251899
30
0
10
-279.23877339295194
20
-506.12699975857413
30
0
10
-279.87744716984685
20
-518.4196735163606
30
0
0
SPLINE
5
266
100
AcDbEntity
8
0
100
AcDbSpline
70
4
71
3
72
8
73
4
74
0
42
0.000000001
43
0.0000000001
44
0.0000000001
40
0
40
0
40
0
40
0
40
1
40
1
40
1
40
1
41
1
41
1
41
1
41
1
10
-279.87744716984685
20
-518.4196735163606
30
0
10
-280.51612094674169
20
-530.71242559338157
30
0
10
-281.47398476351947
20
-536.45949101519648
30
0
10
-279.23865591410038
20
-556.73524433751834
30
0
0
SPLINE
5
267
100
AcDbEntity
8
0
100
AcDbSpline
70
4
71
3
72
8
73
4
74
0
42
0.000000001
43
0.0000000001
44
0.0000000001
40
0
40
0
40
0
40
0
40
1
40
1
40
1
40
1
41
1
41
1
41
1
41
1
10
-279.23865591410038
20
-556.73524433751834
30
0
10
-277.0033466444898
20
-577.01099765984009
30
0
10
-271.57545168274919
20
-611.81324594410501
30
0
10
-266.6264005202587
20
-646.93589821638636
30
0
0
SPLINE
5
268
100
AcDbEntity
8
0
100
AcDbSpline
70
4
71
3
72
8
73
4
74
0
42
0.000000001
43
0.0000000001
44
0.0000000001
40
0
40
0
40
0
40
0
40
1
40
1
40
1
40
1
41
1
41
1
41
1
41
1
10
-266.6264005202587
20
-646.93589821638636
30
0
10
-261.6773297779597
20
-682.05855048866761
30
0
10
-257.20729863299681
20
-717.49941381040162
30
0
10
-251.77907081450991
20
-744.63961307202317
30
0
0
SPLINE
5
269
100
AcDbEntity
8
0
100
AcDbSpline
70
4
71
3
72
8
73
4
74
0
42
0.000000001
43
0.0000000001
44
0.0000000001
40
0
40
0
40
0
40
0
40
1
40
1
40
1
40
1
41
1
41
1
41
1
41
1
10
-251.77907081450991
20
-744.63961307202317
30
0
10
-246.35084299602298
20
-771.77981233364449
30
0
10
-239.96508421750463
20
-790.61770283123064
30
0
10
-232.14216748736044
20
-809.45621988269227
30
0
0
SPLINE
5
270
100
AcDbEntity
8
0
100
AcDbSpline
70
4
71
3
72
8
73
4
74
0
42
0.000000001
43
0.0000000001
44
0.0000000001
40
0
40
0
40
0
40
0
40
1
40
1
40
1
40
1
41
1
41
1
41
1
41
1
10
-232.14216748736044
20
-809.45621988269227
30
0
10
-224.31925075721622
20
-828.29473693415378
30
0
10
-215.05992010817323
20
-847.13270575097442
30
0
10
-210.60798070636162
20
-861.52691952598036
30
0
0
SPLINE
5
271
100
AcDbEntity
8
0
100
AcDbSpline
70
4
71
3
72
8
73
4
74
0
42
0.000000001
43
0.0000000001
44
0.0000000001
40
0
40
0
40
0
40
0
40
1
40
1
40
1
40
1
41
1
41
1
41
1
41
1
10
-210.60798070636162
20
-861.52691952598036
30
0
10
-206.15604130454997
20
-875.9211333009863
30
0
10
-206.51082743647726
20
-885.87120043800564
30
0
10
-207.30921371216516
20
-892.7087045606645
30
0
0
SPLINE
5
272
100
AcDbEntity
8
0
100
AcDbSpline
70
4
71
3
72
8
73
4
74
0
42
0.000000001
43
0.0000000001
44
0.0000000001
40
0
40
0
40
0
40
0
40
1
40
1
40
1
40
1
41
1
41
1
41
1
41
1
10
-207.30921371216516
20
-892.7087045606645
30
0
10
-208.10763914747037
20
-899.54620868332324
30
0
10
-209.34939060921573
20
-903.27146306855934
30
0
10
-210.02657786963709
20
-907.73080363802376
30
0
0
SPLINE
5
273
100
AcDbEntity
8
0
100
AcDbSpline
70
4
71
3
72
8
73
4
74
0
42
0.000000001
43
0.0000000001
44
0.0000000001
40
0
40
0
40
0
40
0
40
1
40
1
40
1
40
1
41
1
41
1
41
1
41
1
10
-210.02657786963709
20
-907.73080363802376
30
0
10
-210.70376513005854
20
-912.19014420748817
30
0
10
-210.81666230647642
20
-917.38286608807118
30
0
10
-212.90430065958611
20
-919.01950312976726
30
0
0
SPLINE
5
274
100
AcDbEntity
8
0
100
AcDbSpline
70
4
71
3
72
8
73
4
74
0
42
0.000000001
43
0.0000000001
44
0.0000000001
40
0
40
0
40
0
40
0
40
1
40
1
40
1
40
1
41
1
41
1
41
1
41
1
10
-212.90430065958611
20
-919.01950312976726
30
0
10
-214.99193901269578
20
-920.65606185222907
30
0
10
-219.05580660795118
20
-918.73724060891391
30
0
10
-221.1448155476632
20
-917.55219227288933
30
0
0
SPLINE
5
275
100
AcDbEntity
8
0
100
AcDbSpline
70
4
71
3
72
8
73
4
74
0
42
0.000000001
43
0.0000000001
44
0.0000000001
40
0
40
0
40
0
40
0
40
1
40
1
40
1
40
1
41
1
41
1
41
1
41
1
10
-221.1448155476632
20
-917.55219227288933
30
0
10
-223.23382448737527
20
-916.36737889456811
30
0
10
-223.34672166379312
20
-915.91571186966212
30
0
10
-224.5888255620934
20
-917.43878602144775
30
0
0
SPLINE
5
276
100
AcDbEntity
8
0
100
AcDbSpline
70
4
71
3
72
8
73
4
74
0
42
0.000000001
43
0.0000000001
44
0.0000000001
40
0
40
0
40
0
40
0
40
1
40
1
40
1
40
1
41
1
41
1
41
1
41
1
10
-224.5888255620934
20
-917.43878602144775
30
0
10
-225.83092946039363
20
-918.96209513093663
30
0
10
-228.2014960478493
20
-922.46155516333704
30
0
10
-231.53092502232155
20
-924.21112854106821
30
0
0
SPLINE
5
277
100
AcDbEntity
8
0
100
AcDbSpline
70
4
71
3
72
8
73
4
74
0
42
0.000000001
43
0.0000000001
44
0.0000000001
40
0
40
0
40
0
40
0
40
1
40
1
40
1
40
1
41
1
41
1
41
1
41
1
10
-231.53092502232155
20
-924.21112854106821
30
0
10
-234.8603539967938
20
-925.9607019187996
30
0
10
-239.14997678526782
20
-925.9607019187996
30
0
10
-242.48014979246705
20
-924.77612349818162
30
0
0
SPLINE
5
278
100
AcDbEntity
8
0
100
AcDbSpline
70
4
71
3
72
8
73
4
74
0
42
0.000000001
43
0.0000000001
44
0.0000000001
40
0
40
0
40
0
40
0
40
1
40
1
40
1
40
1
41
1
41
1
41
1
41
1
10
-242.48014979246705
20
-924.77612349818162
30
0
10
-245.81032279966627
20
-923.59146675832903
30
0
10
-248.18096770635634
20
-921.22082185163902
30
0
10
-249.19680733641428
20
-920.14831825547753
30
0
0
SPLINE
5
279
100
AcDbEntity
8
0
100
AcDbSpline
70
4
71
3
72
8
73
4
74
0
42
0.000000001
43
0.0000000001
44
0.0000000001
40
0
40
0
40
0
40
0
40
1
40
1
40
1
40
1
41
1
41
1
41
1
41
1
10
-249.19680733641428
20
-920.14831825547753
30
0
10
-250.21260780685495
20
-919.07581465931594
30
0
10
-249.87419039492175
20
-919.30145237368288
30
0
10
-251.22934810810875
20
-920.26023644146517
30
0
0
SPLINE
5
280
100
AcDbEntity
8
0
100
AcDbSpline
70
4
71
3
72
8
73
4
74
0
42
0.000000001
43
0.0000000001
44
0.0000000001
40
0
40
0
40
0
40
0
40
1
40
1
40
1
40
1
41
1
41
1
41
1
41
1
10
-251.22934810810875
20
-920.26023644146517
30
0
10
-252.58450582129575
20
-921.21917714771621
30
0
10
-255.63241630764162
20
-922.91243899589881
30
0
10
-258.5669205425458
20
-923.25148296170732
30
0
0
SPLINE
5
281
100
AcDbEntity
8
0
100
AcDbSpline
70
4
71
3
72
8
73
4
74
0
42
0.000000001
43
0.0000000001
44
0.0000000001
40
0
40
0
40
0
40
0
40
1
40
1
40
1
40
1
41
1
41
1
41
1
41
1
10
-258.5669205425458
20
-923.25148296170732
30
0
10
-261.5014247774501
20
-923.59076188521931
30
0
10
-264.32354091096011
20
-922.57456981860651
30
0
10
-266.41231489296888
20
-920.88177788583039
30
0
0
SPLINE
5
282
100
AcDbEntity
8
0
100
AcDbSpline
70
4
71
3
72
8
73
4
74
0
42
0.000000001
43
0.0000000001
44
0.0000000001
40
0
40
0
40
0
40
0
40
1
40
1
40
1
40
1
41
1
41
1
41
1
41
1
10
-266.41231489296888
20
-920.88177788583039
30
0
10
-268.50110845478628
20
-919.18898595305438
30
0
10
-269.8557179333323
20
-916.81834104636437
30
0
10
-270.47663282382223
20
-915.74599408867152
30
0
0
SPLINE
5
283
100
AcDbEntity
8
0
100
AcDbSpline
70
4
71
3
72
8
73
4
74
0
42
0.000000001
43
0.0000000001
44
0.0000000001
40
0
40
0
40
0
40
0
40
1
40
1
40
1
40
1
41
1
41
1
41
1
41
1
10
-270.47663282382223
20
-915.74599408867152
30
0
10
-271.0975477143121
20
-914.67364713097891
30
0
10
-270.98482675617163
20
-914.8990498876426
30
0
10
-272.56503478946746
20
-915.18052921615185
30
0
0
SPLINE
5
284
100
AcDbEntity
8
0
100
AcDbSpline
70
4
71
3
72
8
73
4
74
0
42
0.000000001
43
0.0000000001
44
0.0000000001
40
0
40
0
40
0
40
0
40
1
40
1
40
1
40
1
41
1
41
1
41
1
41
1
10
-272.56503478946746
20
-915.18052921615185
30
0
10
-274.14524282276329
20
-915.46177358695775
30
0
10
-277.41890850232778
20
-915.80058259506313
30
0
10
-280.18463478705473
20
-914.67239402322821
30
0
0
SPLINE
5
285
100
AcDbEntity
8
0
100
AcDbSpline
70
4
71
3
72
8
73
4
74
0
42
0.000000001
43
0.0000000001
44
0.0000000001
40
0
40
0
40
0
40
0
40
1
40
1
40
1
40
1
41
1
41
1
41
1
41
1
10
-280.18463478705473
20
-914.67239402322821
30
0
10
-282.95036107178157
20
-913.54428377062777
30
0
10
-285.20808922224512
20
-910.94784451110183
30
0
10
-286.73251438082457
20
-908.01290952040836
30
0
0
SPLINE
5
286
100
AcDbEntity
8
0
100
AcDbSpline
70
4
71
3
72
8
73
4
74
0
42
0.000000001
43
0.0000000001
44
0.0000000001
40
0
40
0
40
0
40
0
40
1
40
1
40
1
40
1
41
1
41
1
41
1
41
1
10
-286.73251438082457
20
-908.01290952040836
30
0
10
-288.25691995959545
20
-905.07789621048028
30
0
10
-289.04712187528639
20
-901.8042305309159
30
0
10
-289.44241863121795
20
-899.60275517057528
30
0
0
SPLINE
5
287
100
AcDbEntity
8
0
100
AcDbSpline
70
4
71
3
72
8
73
4
74
0
42
0.000000001
43
0.0000000001
44
0.0000000001
40
0
40
0
40
0
40
0
40
1
40
1
40
1
40
1
41
1
41
1
41
1
41
1
10
-289.44241863121795
20
-899.60275517057528
30
0
10
-289.83773496695801
20
-897.40127981023466
30
0
10
-289.83773496695801
20
-896.27246468452438
30
0
10
-291.98184148808525
20
-894.29678367701968
30
0
0
SPLINE
5
288
100
AcDbEntity
8
0
100
AcDbSpline
70
4
71
3
72
8
73
4
74
0
42
0.000000001
43
0.0000000001
44
0.0000000001
40
0
40
0
40
0
40
0
40
1
40
1
40
1
40
1
41
1
41
1
41
1
41
1
10
-291.98184148808525
20
-894.29678367701968
30
0
10
-294.12594800921249
20
-892.32110266951486
30
0
10
-298.41559037749511
20
-889.4989473763876
30
0
10
-301.35119108168124
20
-885.71745978083709
30
0
0
SPLINE
5
289
100
AcDbEntity
8
0
100
AcDbSpline
70
4
71
3
72
8
73
4
74
0
42
0.000000001
43
0.0000000001
44
0.0000000001
40
0
40
0
40
0
40
0
40
1
40
1
40
1
40
1
41
1
41
1
41
1
41
1
10
-301.35119108168124
20
-885.71745978083709
30
0
10
-304.28679178586736
20
-881.9359721852868
30
0
10
-305.86717603744063
20
-877.19483901037552
30
0
10
-306.88336810405349
20
-872.17120835690764
30
0
0
SPLINE
5
290
100
AcDbEntity
8
0
100
AcDbSpline
70
4
71
3
72
8
73
4
74
0
42
0.000000001
43
0.0000000001
44
0.0000000001
40
0
40
0
40
0
40
0
40
1
40
1
40
1
40
1
41
1
41
1
41
1
41
1
10
-306.88336810405349
20
-872.17120835690764
30
0
10
-307.89957975047491
20
-867.14757770343965
30
0
10
-308.35110971672071
20
-861.84191948682167
30
0
10
-307.33525050685421
20
-853.31867216248475
30
0
0
SPLINE
5
291
100
AcDbEntity
8
0
100
AcDbSpline
70
4
71
3
72
8
73
4
74
0
42
0.000000001
43
0.0000000001
44
0.0000000001
40
0
40
0
40
0
40
0
40
1
40
1
40
1
40
1
41
1
41
1
41
1
41
1
10
-307.33525050685421
20
-853.31867216248475
30
0
10
-306.31941087679627
20
-844.79534651891322
30
0
10
-303.83594711292272
20
-833.05529327920135
30
0
10
-302.98913997055399
20
-821.14583553543696
30
0
0
SPLINE
5
292
100
AcDbEntity
8
0
100
AcDbSpline
70
4
71
3
72
8
73
4
74
0
42
0.000000001
43
0.0000000001
44
0.0000000001
40
0
40
0
40
0
40
0
40
1
40
1
40
1
40
1
41
1
41
1
41
1
41
1
10
-302.98913997055399
20
-821.14583553543696
30
0
10
-302.1423328281852
20
-809.23629947243796
30
0
10
-302.9325347438762
20
-797.15759386308957
30
0
10
-304.56928926442401
20
-785.53008536324091
30
0
0
SPLINE
5
293
100
AcDbEntity
8
0
100
AcDbSpline
70
4
71
3
72
8
73
4
74
0
42
0.000000001
43
0.0000000001
44
0.0000000001
40
0
40
0
40
0
40
0
40
1
40
1
40
1
40
1
41
1
41
1
41
1
41
1
10
-304.56928926442401
20
-785.53008536324091
30
0
10
-306.20604378497183
20
-773.9026551826264
30
0
10
-308.68950754884531
20
-762.72704866538686
30
0
10
-313.92162400434199
20
-740.12850348860638
30
0
0
SPLINE
5
294
100
AcDbEntity
8
0
100
AcDbSpline
70
4
71
3
72
8
73
4
74
0
42
0.000000001
43
0.0000000001
44
0.0000000001
40
0
40
0
40
0
40
0
40
1
40
1
40
1
40
1
41
1
41
1
41
1
41
1
10
-313.92162400434199
20
-740.12850348860638
30
0
10
-319.15372088003005
20
-717.5298799925913
30
0
10
-327.13411801078632
20
-683.50996254095799
30
0
10
-332.40171307947577
20
-650.53466703803247
30
0
0
SPLINE
5
295
100
AcDbEntity
8
0
100
AcDbSpline
70
4
71
3
72
8
73
4
74
0
42
0.000000001
43
0.0000000001
44
0.0000000001
40
0
40
0
40
0
40
0
40
1
40
1
40
1
40
1
41
1
41
1
41
1
41
1
10
-332.40171307947577
20
-650.53466703803247
30
0
10
-337.66932772797372
20
-617.55929321587246
30
0
10
-340.2236116595725
20
-585.63057764251494
30
0
10
-343.25677855003858
20
-563.12037656216137
30
0
0
SPLINE
5
296
100
AcDbEntity
8
0
100
AcDbSpline
70
4
71
3
72
8
73
4
74
0
42
0.000000001
43
0.0000000001
44
0.0000000001
40
0
40
0
40
0
40
0
40
1
40
1
40
1
40
1
41
1
41
1
41
1
41
1
10
-343.25677855003858
20
-563.12037656216137
30
0
10
-346.28994544050471
20
-540.61009716257331
30
0
10
-349.80209318888114
20
-527.51935040603644
30
0
10
-353.47416881394537
20
-501.49645334266523
30
0
0
SPLINE
5
297
100
AcDbEntity
8
0
100
AcDbSpline
70
4
71
3
72
8
73
4
74
0
42
0.000000001
43
0.0000000001
44
0.0000000001
40
0
40
0
40
0
40
0
40
1
40
1
40
1
40
1
41
1
41
1
41
1
41
1
10
-353.47416881394537
20
-501.49645334266523
30
0
10
-357.14622485920103
20
-475.4735562792942
30
0
10
-360.97768012631207
20
-436.52054520918369
30
0
10
-365.92669212918531
20
-401.87689337462143
30
0
0
SPLINE
5
298
100
AcDbEntity
8
0
100
AcDbSpline
70
4
71
3
72
8
73
4
74
0
42
0.000000001
43
0.0000000001
44
0.0000000001
40
0
40
0
40
0
40
0
40
1
40
1
40
1
40
1
41
1
41
1
41
1
41
1
10
-365.92669212918531
20
-401.87689337462143
30
0
10
-370.87572371186718
20
-367.23331985929349
30
0
10
-376.94217497165096
20
-336.90098524113989
30
0
10
-379.97561597943758
20
-321.73379978201552
30
0
0
SPLINE
5
299
100
AcDbEntity
8
0
100
AcDbSpline
70
4
71
3
72
8
73
4
74
0
42
0.000000001
43
0.0000000001
44
0.0000000001
40
0
40
0
40
0
40
0
40
1
40
1
40
1
40
1
41
1
41
1
41
1
41
1
10
-379.97561597943758
20
-321.73379978201552
30
0
10
-383.0090569872242
20
-306.56653600365689
30
0
10
-383.0090569872242
20
-306.56653600365689
30
0
10
-379.49698755808214
20
-295.07240516002702
30
0
0
LINE
5
300
100
AcDbEntity
8
0
100
AcDbLine
10
-379.49698755808214
20
-295.07240516002702
30
0
11
-379.49706587731657
21
-295.07295339466799
31
0
0
LINE
5
301
100
AcDbEntity
8
0
100
AcDbLine
10
1286.2877251078623
20
-222.94282037242397
30
0
11
1400.9561534116283
21
-222.94282037242397
31
0
0
LINE
5
302
100
AcDbEntity
8
0
100
AcDbLine
10
1400.9561534116283
20
-222.94282037242397
30
0
11
1400.9561534116283
21
-272.94282037242397
31
0
0
LINE
5
303
100
AcDbEntity
8
0
100
AcDbLine
10
1400.9561534116283
20
-272.94282037242397
30
0
11
1286.2877251078623
21
-272.94282037242397
31
0
0
LINE
5
304
100
AcDbEntity
8
0
100
AcDbLine
10
1286.2877251078623
20
-272.94282037242397
30
0
11
1286.2877251078623
21
-222.94282037242397
31
0
0
LINE
5
305
100
AcDbEntity
8
0
100
AcDbLine
10
1630.140546541857
20
-244.56784395650158
30
0
11
1694.7243115153094
21
-244.56784395650158
31
0
0
LINE
5
306
100
AcDbEntity
8
0
100
AcDbLine
10
1694.7243115153094
20
-244.56784395650158
30
0
11
1694.7243115153094
21
-294.56784395650158
31
0
0
LINE
5
307
100
AcDbEntity
8
0
100
AcDbLine
10
1694.7243115153094
20
-294.56784395650158
30
0
11
1630.140546541857
21
-294.56784395650158
31
0
0
LINE
5
308
100
AcDbEntity
8
0
100
AcDbLine
10
1630.140546541857
20
-294.56784395650158
30
0
11
1630.140546541857
21
-244.56784395650158
31
0
0
LINE
5
309
100
AcDbEntity
8
0
100
AcDbLine
10
1286.2877251078623
20
-222.94282037242397
30
0
11
1296.2877251078623
21
-222.94282037242397
31
0
0
LINE
5
310
100
AcDbEntity
8
0
100
AcDbLine
10
1296.2877251078623
20
-222.94282037242397
30
0
11
1296.2877251078623
21
-212.94282037242397
31
0
0
LINE
5
311
100
AcDbEntity
8
0
100
AcDbLine
10
1296.2877251078623
20
-212.94282037242397
30
0
11
1286.2877251078623
21
-212.94282037242397
31
0
0
LINE
5
312
100
AcDbEntity
8
0
100
AcDbLine
10
1286.2877251078623
20
-212.94282037242397
30
0
11
1286.2877251078623
21
-222.94282037242397
31
0
0
LINE
5
313
100
AcDbEntity
8
0
100
AcDbLine
10
1286.2877251078623
20
-272.94282037242397
30
0
11
1296.2877251078623
21
-272.94282037242397
31
0
0
LINE
5
314
100
AcDbEntity
8
0
100
AcDbLine
10
1296.2877251078623
20
-272.94282037242397
30
0
11
1296.2877251078623
21
-282.94282037242397
31
0
0
LINE
5
315
100
AcDbEntity
8
0
100
AcDbLine
10
1296.2877251078623
20
-282.94282037242397
30
0
11
1286.2877251078623
21
-282.94282037242397
31
0
0
LINE
5
316
100
AcDbEntity
8
0
100
AcDbLine
10
1286.2877251078623
20
-282.94282037242397
30
0
11
1286.2877251078623
21
-272.94282037242397
31
0
0
LWPOLYLINE
5
317
100
AcDbEntity
8
0
100
AcDbPolyline
90
4
70
1
43
0.0
10
1400
20
-212.35740363053696
10
1300.2877251078623
20
-212.35740363053696
10
1300.2877251078623
20
-300
10
1400
20
-300
0
LWPOLYLINE
5
318
100
AcDbEntity
8
0
100
AcDbPolyline
90
4
70
1
43
0.0
10
1637.8745464940589
20
-229.99306034511818
10
1680.7243115153094
20
-229.99306034511818
10
1680.7243115153094
20
-320.40724324333041
10
1637.8745464940589
20
-320.40724324333041
0
LINE
5
319
100
AcDbEntity
8
0
100
AcDbLine
10
1694.7243115153094
20
-244.56784395650158
30
0
11
1684.7243115153094
21
-244.56784395650158
31
0
0
LINE
5
320
100
AcDbEntity
8
0
100
AcDbLine
10
1684.7243115153094
20
-244.56784395650158
30
0
11
1684.7243115153094
21
-234.56784395650158
31
0
0
LINE
5
321
100
AcDbEntity
8
0
100
AcDbLine
10
1684.7243115153094
20
-234.56784395650158
30
0
11
1694.7243115153094
21
-234.56784395650158
31
0
0
LINE
5
322
100
AcDbEntity
8
0
100
AcDbLine
10
1694.7243115153094
20
-234.56784395650158
30
0
11
1694.7243115153094
21
-244.56784395650158
31
0
0
LINE
5
323
100
AcDbEntity
8
0
100
AcDbLine
10
1694.7243115153094
20
-294.56784395650158
30
0
11
1684.7243115153094
21
-294.56784395650158
31
0
0
LINE
5
324
100
AcDbEntity
8
0
100
AcDbLine
10
1684.7243115153094
20
-294.56784395650158
30
0
11
1684.7243115153094
21
-304.56784395650158
31
0
0
LINE
5
325
100
AcDbEntity
8
0
100
AcDbLine
10
1684.7243115153094
20
-304.56784395650158
30
0
11
1694.7243115153094
21
-304.56784395650158
31
0
0
LINE
5
326
100
AcDbEntity
8
0
100
AcDbLine
10
1694.7243115153094
20
-304.56784395650158
30
0
11
1694.7243115153094
21
-294.56784395650158
31
0
0
LWPOLYLINE
5
327
100
AcDbEntity
8
0
100
AcDbPolyline
90
4
70
1
43
0.0
10
-316
20
-230
10
-320
20
-230
10
-320
20
-300
10
-316
20
-300
0
ENDSEC
0
SECTION
2
OBJECTS
0
DICTIONARY
5
C
100
AcDbDictionary
3
ACAD_GROUP
350
D
3
ACAD_MLINESTYLE
350
17
0
DICTIONARY
5
D
100
AcDbDictionary
0
DICTIONARY
5
1A
330
C
100
AcDbDictionary
0
DICTIONARY
5
17
100
AcDbDictionary
0
ENDSEC
0
EOF
